>
 >
Cold Blue Steel & Sweet Fire

Cold Blue Steel & Sweet Fire Guitar Tabs

Joni Mitchell - Cold Blue Steel & Sweet Fire chords, tabs, tablatures, lyrics

Guitar lessons | Add/correct | Request | Top 50 tabs Artists:  A B C D E F G H I J K L M N O P Q R S T U V W X Y Z 0-9

Cold Blue Steel & Sweet Fire Guitar Tabs – Joni Mitchell

CD, Sheet music, Poster

Do you like Cold Blue Steel & Sweet Fire? Share with your friends now
Tabs
Cold Blue Steel & Sweet Fire- Joni Mitchell

**Tuning: CGDGBD**

   G  C  F  G  Bb  G  F  G   G     F  G  Bb  G  F   D
D|-X--X--X--X--X---X--X--X---X-----X--X--X---X--X---X--|
B|-X--X--X--X--X---X--X--X---X-----X--X--X---X--X---X--|
G|-X--X--X--X--X---X--X--X---X-----X--X--X---X--X---X--|
D|-X--X--X--X--X---X--X--X---X-----X--X--X---X--X---X--|
G|-7--0--5--7--10--7--5--7---1to7--5--7--10--7--5---2--|
C|-7--0--5--7--10--7--5--7---1to7--5--7--10--7--5---2--|
                           (slide)

    C               Gmaj7/C Csus2                    Gmaj7/C  Csus2
D|--X------------------0------0-------------------------0-------0----|
B|-h1------------------3------5-------------------------7-------8----|
G|--0------------------0------0-------------------------0-------9----|
D|-h2------------------4------5-------------------------7-------10---|
G|--0------------------0------5-------------------------7-------0----|
C|--0------------------0------0-------------------------0-------0----|
       Cold Blue Steel out of mon-ey,   one eye for the beat po-lice

(slide)
   G          F    G     Bb  G        F
D|-X----------X----X-----X---X--------X---------|
B|-X----------X----X-----X---X--------X---------|
G|-X----------X----X-----X---X--------X---------|
D|-X----------X----X-----X---X--------X---------|
G|-1to7-------5----7-----10--7--------5---------|
C|-1to7-------5----7-----10--7--------5---------|
   Sweet Fire call-ing, “You can’t de- -ny me,”

   G         F   G         Bb    G  F   D  C
D|-X---------X---X---------X-----X--X---X--X--|
B|-X---------X---X---------X-----X--X---X--h1-|
G|-X---------X---X---------X-----X--X---X--0--|
D|-X---------X---X---------X-----X--X---X--h2-|
G|-1to7------5---7---------10----7--5---2--0--|
C|-1to7------5---7---------10----7--5---2--0--|
        “Now you know what you need”

   Gmaj7/C            Csus2                    Gmaj7/C Csus2
D|----0-----------------0-------------------------0------0-------|
B|----3-----------------5-------------------------7------8-------|
G|----0-----------------0-------------------------0------9-------|
D|----4-----------------5-------------------------7------10------|
G|----0-----------------5-------------------------7------0-------|
C|----0-----------------0-------------------------0------0-------|
   Un-der-neath the jun-gle gym, hollow grew fire es-cape  thief

   G            F       G  D   G          C
D|-X------------X-------X--7---0----------5-------------|
B|-X------------X-------X--7---0----------5-------------|
G|-X------------X-------X--7---0----------5-------------|
D|-X------------X-------X--7---0----------5-------------|
G|-7------------5-------7--X---X----------0-------------|
C|-7------------5-------7--X---X----------0--0----------|
   Look-ing for Sweet Fire,    shad-ow of La-dy Release

                    (slide)  (slide)
    C  Bb/C  C   G  Bb/CtoC  Bb/CtoC
D|--5----3----5---0--3to5-----3to5-----------|
B|--5----3----5---0--3to5-----3to5-----------|
G|--5----3----5---0--3to5-----3to5-----------|
D|--5----3----5---0--3to5-----3to5-----------|
G|--0----0----0---X--0--------0--------------|
C|--0----0----0---X--0--------0--------------|
   “Come with me, I  know the way,” she says

        D/G   F/Bb  C/F
D|-------7-----10----5---------------------|
B|-------7-----10----5---------------------|
G|-------7-----10----5---------------------|
D|-------7-----10----5---------------------|
G|-------7-----10----5---------------------|
C|-------7-----10----5---------------------|
   “It’s down, down, down the dark ladder”

   C           Gmaj7/C  Csus2                      Gmaj7/C         Csus2
D|-X--------------0-------0---------------------------0--------------0----|
B|-h1-------------3-------5---------------------------7--------------8----|
G|-0--------------0-------0---------------------------0--------------9----|
D|-h2-------------4-------5---------------------------7--------------10---|
G|-0--------------0-------5---------------------------7--------------0----|
C|-0--------------0-------0---------------------------0--------------0----|
     “Do you want to  con- tact somebody first? Leave some-one a let- ter”

                G    F  G   Bb    G    F   G       G  C  F  G
D|---------------X----X--X---X-----X----X---X-----X-----X--X--X-------------|
B|---------------X----X--X---X-----X----X---X-----X-----X--X--X-------------|
G|---------------X----X--X---X-----X----X---X-----X-----X--X--X-------------|
D|---------------X----X--X---X-----X----X---X-----X-----X--X--X-------------|
G|---------------7----5--7---10----7----5---7-----1to7--0--5--7-------------|
C|---------------7----5--7---10----7----5---7-----1to7--0--5--7-------------|
   “You can come  now or you   can come la- ter”
 

   G  F  D
D|-X--X--X--|
B|-X--X--X--|
G|-X--X--X--|
D|-X--X--X--|
G|-7--5--2--|
C|-7--5--2--|

A wristwatch, a ring, a downstairs screamer
Edgy-black cracks of the sky
“Pin-cushion-prick, fix this poor bad dreamer!”
“Money,” cold shadows reply
Pawn shops crisscrossed and padlocked
Corridors spit on prayers and pleas
Black soot of Lady Release

“Come with me, I know the way,” she says
“It’s down, down, down the dark ladder
Do you want to contact somebody first?
I mean, does it really matter if you come now
Or if you come later?”

   G  F  D
D|-X--X--X--|
B|-X--X--X--|
G|-X--X--X--|
D|-X--X--X--|
G|-7--5--2--|
C|-7--5--2--|

Red water in the bathroom sink
Fever and the scum brown bowl
Blue Steel still begging, but it’s indistinct
Someone’s Hi-Fi drumming jelly-roll
Concrete concentration camp, bashing in veins for peace
Cold Blue Steel and Sweet Fire fall into Lady Release

“Come with me, I know the way,” she says
“It’s down, down, down the dark ladder
Do you want to contact somebody first?
I mean, what does it really matter?
You’re going to come now
Or you’re going to come on later”






   C Gmaj7/C Csus2       Gmaj7/C Csus2
D|-X---0------0------------0------0---|
B|-h1--3------5------------7------8---|
G|-0---0------0------------0------9---|
D|-h2--4------5------------7------10--|
G|-0---0------5------------7------0---|
C|-0---0------0------------0------0---|

           (2x)                            (2x)
   /                  \   *   *        /           \
   G     F  G  Bb  G  F   G   D    C   Gmaj7/C Csus2
D|-X-----X--X--X---X--X---X---X----X-----0-------0---|
B|-X-----X--X--X---X--X---X---X----h1----3-------5---|
G|-X-----X--X--X---X--X---X---X----0-----0-------0---|
D|-X-----X--X--X---X--X---X---X----h2----4-------5---|
G|-1to7--5--7--10--7--5---7---2----0-----0-------5---|
C|-1to7--5--7--10--7--5---7---2----0-----0-------0---|
 (slide)                 1st  2nd
                        time  time

   G  F  G  Bb  G  F   G  D   G  C
D|-X--X--X--X---X--X---X--7---0--5--|
B|-X--X--X--X---X--X---X--7---0--5--|
G|-X--X--X--X---X--X---X--7---0--5--|
D|-X--X--X--X---X--X---X--7---0--5--|
G|-7--5--7--10--7--5---7--X---X--0--|
C|-7--5--7--10--7--5---7--X---X--0--|

                 (2x)
                /     \
   C Bb/C  C  G Bb/CtoC  D/G F/Bb  C/F
D|-5---3---5--0--3to5-----7---10----5--|
B|-5---3---5--0--3to5-----7---10----5--|
G|-5---3---5--0--3to5-----7---10----5--|
D|-5---3---5--0--3to5-----7---10----5--|
G|-0---0---0--X--0--------7---10----5--|
C|-0---0---0--X--0--------7---10----5--|
               (slide)              ^repeat & fade





Comments


Popular Joni Mitchell tabs & chords
Edith And The Kingpin 2 Chords
A Case Of You 1 Tabs
Big Yellow Taxi Ukulele
Blue Ukulele
Chelsea Morning Ukulele
Coyote Ukulele
Help Me Ukulele
Mitchell Tunings Ukulele
My Old Man Ukulele
Rainy Night House Ukulele


Song lyrics



↑ Back to top | Tablatures and chords are parodies/interpretations of the original songs. You may use it for private study, scholarship, research or language learning purposes only
© 2014 AZChords.com Contact us | Privacy policy | DMCA | Add/correct tabs | Request tabs | Top 50 tabs