» » »

Joni Mitchell, Both Sides Now Tabs (ver.1)

Artists:  A B C D E F G H I J K L M N O P Q R S T U V W X Y Z # 

Both Sides Now Tabs (ver.1)

Joni Mitchell Tabs
Rating:
4/5 (3 votes)
Both Sides Now lessons Tabs too difficult? Try these video lessons and learn fast
                This is exactly how she plays it on album. Not the live version. Obviously, no sort of 
is present because this is a tab. Use your ears; it's not difficult. The song is F# and I 
this by ear. I have perfect pitch, so you should trust me :P
Gorgeous poetry. Have fun with it.

Capo 2nd

(Intro)
e-0---0---0---0---|
b-0---0---0---0---|
g-1---1---2---1---|
d-2---2---2---2---|
a-2---2---4---2---|
e-0---0---0---0---|

(Verse)
e-0---0---0---0---0---0---0---0---|
b-0---0---0---0---0---0---0---0---|
g-4---2---2---1---1---2---2---4---|
d-x---x---4---2---2---4---4---6---|
a-6---4---2---2---2---2---2---2---|
e-0---0---x---0---0---0---0---0---|

e-0---0---0---0---0---0---0---0---|
b-0---0---0---0---0---0---0---0---|
g-4---2---2---2---4---2---2---2---|
d-x---x---4---4---x---x---4---4---|
a-6---4---2---2---6---4---2---2---|
e-0---0---x---x---0---0---x---x---|

(Chorus)
e-0---0---0---0---2---0---2---0---|
b-0---0---0---0---0---0---0---0---|
g-1---2---2---1---2---1---2---1---|
d-2---1---4---2---1---2---1---2---|
a-2---2---2---2---2---2---2---2---|
e-0---0---0---0---0---0---0---0---|

e-0---0---0---0---0---0---0---FILL---|
b-0---0---0---0---0---0---0---FILL---|
g-4---2---2---1---4---2---2---FILL---|
d-x---x---4---2---x---x---4---FILL---|
a-6---4---2---2---6---4---2---FILL---|
e-0---0---x---0---0---0---x---FILL---|

(FILL)
e-0---0-----------------0---0---|
b-0-------0---0---------0-------|
g-2-----2-------------2-2-------|
d-4---------4-----4-----4-------|
a-2---------------------2-------|
e(0)------------0---------------|

(FILL2)
e-0---0---0---0---0---0---0---0---|
b-0---0---0---0---0---0---0---0---|
g-1---1---2---1---1---4---2---1---|
d-2---2---2---2---2---7---2---2---|
a-2---2---4---2---2---6---4---2---|
e-0---0---0---0---0---0---0---0---|


(Intro)
(Verse)
Rows and flows of angel hair,
And ice cream castles in the air,
And feather canyons everywhere-
I've looked at clouds that way.
(Verse)
But now they only block the sun-
They rain and snow on everyone!
So many things I would have done,
But clouds got in my way.

(Chorus)
I've looked at clouds from both sides now,
It's clouds' illusions I recall;
I really don't know clouds at all.

(fill2)

(Verse)
Moons and junes and ferris wheels,
The dizzy dancing way you feel
As every fairy tale comes real-
I've looked at love that way.
(Verse)
But now it's just another show-
You leave 'em laughing when you go,
And if you care, don't let them know;
Don't give yourself away.

(Chorus)
I've looked at love from both sides now,
It's love's illusions I recall;
I really don't know love at all.

(fill2)

(Verse)
Tears and fears and feeling proud,
To say, "I love you," right out loud,
Dreams and schemes and circus crowds-
I've looked at life that way.
(Verse)
But now old friends are acting strange.
They shake their heads, they say, "I've changed."
Well, something's lost, but something's gained
In living every day.

(Chorusx2)
I've looked at life from both sides now,
It's life's illusions I recall;
I really don't know life at all.
I've looked at life from both sides now,
It's life's illusions I recall;
I really don't know life at all.
            

comments powered by Disqus
↑ Back to top | Joni Mitchell Tabs for Both Sides Now. Lyrics for acoustic guitar and electric guitar. Tablatures and chords are parodies/interpretations of the original songs. You may use it for private study, scholarship, research or language learning purposes only