» » »

Two Suns Bass tabs (ver.1)

Artists:  A B C D E F G H I J K L M N O P Q R S T U V W X Y Z # 

Two Suns Bass tabs (ver.1)

John Rhino Edwards
Rating:
5/5 (1 vote)

Hard to play? Try these video lessons and learn fast.
                John 'Rhino' Edwards
Rhino's Revenge 2002


A bass instrumental.
Use quite a bit of Chorus/Flange as well as 
full tone on your bass to get it 'silky' when you 
slide to nail the tone.  New, light strings also help.
This rare song was written for Rhino's 'Two Sons'.
Alot of this is harmonized so if it doesn't 
sound right then that is why.


G|-9h11--------------------14p13-----------11-9---------|
D|------0------9h11---------------------12--------------|
A|------------------0---------------------------0-------|
E|-------------------------------0----------------------|


G|-16p14------------11-9-----------------------11-9--------|
D|-------0-------12-------------11-9--------12-------------|
A|-----------------------0--------------------------0------|
E|-----------------------------------0---------------------|


G|-16b-rb-14------------11-9---------------------------------|
D|-----------0-------12-------------11-9----------9-7--------|
A|---------------------------0------------------7-----0------|
E|---------------------------------------0-------------------|


Drums enter - (I think they are done on a drum machine!)


G|-/-16-18-18--16-18-19-18----|
D|-------------------------19-|
A|----------------------------|
E|----------------------------|

It all sounds right.
Have a go!
            
Hard to play? Try these video lessons and learn fast. | Correct




comments powered by Disqus
↑ Back to top | Tablatures and chords are parodies/interpretations of the original songs. You may use it for private study, scholarship, research or language learning purposes only