» » »

Spacemaker Tabs (ver.1)

Artists:  A B C D E F G H I J K L M N O P Q R S T U V W X Y Z # 

Spacemaker Tabs (ver.1)

John Rhino Edwards
Rating:
0/5 (0 votes)

Tabs too difficult? Try these video lessons and learn fast.
                John 'Rhino' Edwards
Rhino's Revenge 2002



Rhythm over D chord:
   D
E|-----------------|
B|-----3-3-1-1-3-3-|
G|-2-2-2-2-2-2-2-2-|
D|-0-0-------------|
A|-----------------|
E|-----------------|etc

D
See me fly miles beyond the sky
                                             G    D
to take my place in another time in another phase

and I will look to above for a world that's filled with love
G
I got a vision of the world we're living in, drives me insane
                                                               D
turn off your television and use your brain to find the spacemaker

so give it up for the spacemaker


it's not the end of the game, maybe now's the time to break the chain
                                  G                 
all we have to do is open up our eyes

this is a vision of the world we're living in, everything change
                                                              D
we got to take a new position, get on the train of the spacemaker

yeh give it up for the spacemaker, give it up for the spacemaker

                                            D
E|---------------------------------------------------------------------|
B|--------------------------------------------10-8\7-7b-rb-------------|
G|------7-9-9b-rb-7----------7-9-9b-rb-7----7--------------9-7-9b-rb-7-|
D|-9-10-------------10--9-10-------------10----------------------------|
A|---------------------------------------------------------------------|
E|---------------------------------------------------------------------|

                                            D                          
E|--------------------------------------------10-7h8p7-------------|
B|-----------------------------------------------------7-7b-rb-----|
G|------7-9-9b-rb-7----------7-9-9b-rb-7----7------------------9-7-|
D|-9-10-------------10--9-10-------------10------------------------|
A|-----------------------------------------------------------------|
E|-----------------------------------------------------------------|

                                            D
E|---------------------------------------------------------------------|
B|--------------------------------------------10-8\7-7b-rb-------------|
G|------7-9-9b-rb-7----------7-9-9b-rb-7----7--------------9-7-9b-rb-7-|
D|-9-10-------------10--9-10-------------10----------------------------|
A|---------------------------------------------------------------------|
E|---------------------------------------------------------------------|

                   D Dsus4 G Dsus2 D
give it up for the spacemaker
don't forget the world you leave behind is the world we'll have to live in
give it up for the spacemaker
so please don't mess it up, don't mess up our future


don't let it all fade away, we change tomorrow with what we do today
                                      G
take a deeper look at what you have inside

I got a vision of the world we're living in, we can turn a new page
                                                                  D
we got to take the big decision to usher in the age of the spacemaker

so give it up for the spacemaker, give it up for the spacemaker

D
give it up, give it up, give it up for the spacemaker

give it up, give it up, give it up, give it up for the spacemaker






Drums, Percussion: Charlie Morgan
Bass: Rhino
Guitars: Rhino, Steve Byrd
Solo Guitar: Steve Byrd
Keyboards: Rhino
Backing Vocals: Rhino
Middle Voice: Freddie Edwards
            
Tabs too difficult? Try these video lessons and learn fast.


comments powered by Disqus
↑ Back to top | Tablatures and chords are parodies/interpretations of the original songs. You may use it for private study, scholarship, research or language learning purposes only