» » »

Dont Come Around Here No More Bass tabs (ver.1)

Artists:  A B C D E F G H I J K L M N O P Q R S T U V W X Y Z # 

Dont Come Around Here No More Bass tabs (ver.1)

John Rhino Edwards
Rating:
0/5 (0 votes)

Hard to play? Try these video lessons and learn fast.
                Don't Come Around Here No More
John 'Rhino' Edwards
Rhino's Revenge 2002



G|-----12-------------------12--------------------12-------------|
D|-2/12-----------------2/12------------------2/12---------------|
A|----------------0-0------------------0-0-------------------0-0-|
E|--------0-3-3-0-------------0-3-3-0----------------0-3-3-0-----|


G|-----12-------12-14b-14-12----|
D|-2/12---12h14--------------14-|
A|------------------------------|
E|------------------------------|

That is the intro solo and later when Rhino begins to sing:

G|-----12-12------------|
D|-2/12------12p9-------|
A|----------------12p10-|
E|----------------------|


I think that's it anyways...
            
Hard to play? Try these video lessons and learn fast. | Correct




comments powered by Disqus
↑ Back to top | Tablatures and chords are parodies/interpretations of the original songs. You may use it for private study, scholarship, research or language learning purposes only