>
 >
Judy

Judy Guitar Tabs

John Renbourn - Judy chords, tabs, tablatures, lyrics

Guitar lessons | Add/correct | Request | Top 50 tabs Artists:  A B C D E F G H I J K L M N O P Q R S T U V W X Y Z 0-9

Judy Guitar Tabs – John Renbourn

CD, Sheet music, Poster

Do you like Judy? Share with your friends now
Tabs
                                 Judy                                       

                                                                           
E||-------3----0----|-----------------|-----------------|-----------------|
B||-----------------|------------3----|-----------------|-----------------|
G||--2--------------|-----------------|-------5---------|------------1----|
D||-----------------|-------2---------|--0---------7----|-------2---------|
A||--0--------------|-----------------|-----------------|-----------------|
E||-----------------|--3--------------|--5--------------|--0--------------|


                                                                        
-------3----0----|-----------------|-----------------|-----------------|
-----------------|------------3----|-----------------|-----------------|
--2--------------|-----------------|-------5---------|------------1----|
-----------------|-------2---------|--0---------7----|-------2---------|
--0--------------|-----------------|-----------------|-----------------|
-----------------|--3--------------|--5--------------|--0--------------|


                                                                        
-------3----0----|-----------------|-----------------|-----------------|
-----------------|------------3----|-----------------|-----------------|
--2--------------|-----------------|-------5---------|------------1----|
-----------------|-------2---------|--0---------7----|-------2---------|
--0--------------|-----------------|-----------------|-----------------|
-----------------|--3--------------|--5--------------|--0--------------|


                                                                        
-------3----0----|-----------------|-----------------|-----------------|
-----------------|--3----1---------|-----------------|-----------------|
--2--------------|------------2----|------------1----|--2--1--2--------|
-----------------|------------1----|--2--------------|-----------------|
-----------------|-----------------|-----------------|--0--------------|
--1--------------|-----------------|-------0---------|-----------------|


                                                                        
-------3----0----|-----------------|-----------------|-----------------|
-----------------|------------3----|-----------------|-----------------|
--2--------------|-----------------|-------5---------|------------1----|
-----------------|-------2---------|--0---------7----|-------2---------|
--0--------------|-----------------|-----------------|-----------------|
-----------------|--3--------------|--5--------------|--0--------------|


                                                                        
-------3----0----|-----------------|-----------------|-----------------|
-----------------|------------3----|-----------------|-----------------|
--2--------------|-----------------|-------5---------|------------1----|
-----------------|-------2---------|--0---------7----|-------2---------|
--0--------------|-----------------|-----------------|-----------------|
-----------------|--3--------------|--5--------------|--0--------------|


                                                                        
-------3----0----|-----------------|-----------------|-----------------|
-----------------|------------3----|-----------------|-----------------|
--2--------------|-----------------|-------5---------|------------1----|
-----------------|-------2---------|--0---------7----|-------2---------|
--0--------------|-----------------|-----------------|-----------------|
-----------------|--3--------------|--5--------------|--0--------------|


                                                                           
-------3----0----|-----------------|-----------------|--------------0--2--|
-----------------|--3----1---------|-----------------|-----------1--------|
--2--------------|------------2----|------------1----|--2-----2-----------|
-----------------|------------1----|--2--------------|-----2--------------|
-----------------|-----------------|-----------------|--0-----------------|
--1--------------|--1--------------|-------0---------|--------------------|


                                                                          
--3--0--5--------|--0--3----0-------|-------0---------|------------------|
--------5--------|--1----------1----|--3--------------|--0h-3----0-------|
--4-----5--------|--2---------------|------------2----|--0----------0----|
--2--------------|------------------|-----------------|--2---------------|
--------0--------|--0---------------|-----------------|------------------|
-----------------|------------------|--2--------------|--0---------------|


                                                                           
------------------|--0--3----0-------|-------0---------|------------------|
------------------|--1----------1----|--3--------------|--0--3----0-------|
--2-------2-------|--2---------------|------------2----|--0----------0----|
-------2----------|------------------|-----------------|--2---------------|
--0----------0----|------------------|-----------------|------------------|
------------------|--2---------------|--2--------------|--0---------------|


                                                                              
------------------|--5--------5-------|--3--0-------------|-----0------------|
------------------|--3--------3-------|-----------1-------|--3-------3-------|
--2-------2-------|-------------------|--------------2----|-------------2----|
-------2----------|--4--0-----4--0----|--------2----------|------------------|
--0----------0----|--------0----------|--0----------------|------------------|
------------------|-------------------|-------------------|--2---------------|


                                                                              
--3---------------|--5--------5-------|--3--0-------------|-----0------------|
--3---------------|--3--------3-------|-----------1-------|--3-------3-------|
-------------0----|-------------------|--------------2----|-------------2----|
-------------0----|--4--0-----4--0----|--------2----------|------------------|
-------0h-2-------|--------0----------|--0----------------|------------------|
--3---------------|-------------------|-------------------|--2---------------|


                                                                               
--0---------------|--0--------0-------|--0--------0-------|--0--------0-------|
--0---------------|--3--------3-------|--1--------1-------|--3--------3-------|
--2-------2--1----|-----0--------0----|-----2--------2----|-----0--------0----|
-------------2----|-----0-------------|-----2-------------|-----0-------------|
-------2----------|--2-----2-----2----|--0-----0-----0----|--2-----2-----2----|
--0---------------|-------------------|-------------------|-------------------|


                                                                                
--0--------0-------|--0--------0-------|--0--------0-------|--0--------0-------|
--5--------5-------|--3--------3-------|--1--------1-------|--3--------3-------|
-----2--------0----|-----0--------0----|-----2--------2----|-----0--------0----|
-----2-------------|-----0-------------|-----2-------------|-----0-------------|
--3-----3-----2----|--2-----2-----2----|--0-----0-----0----|--2-----2-----2----|
-------------------|-------------------|-------------------|-------------------|


                                                                                
--0--------0-------|--0--------0-------|--0--------0-------|--0--------0-------|
--5--------5-------|--3--------3-------|--1--------1-------|--3--------3-------|
-----2--------0----|-----0--------0----|-----2--------2----|-----0--------0----|
-----2-------------|-----0-------------|-----2-------------|-----0-------------|
--3-----3-----2----|--2-----2-----2----|--0-----0-----0----|--2-----2-----2----|
-------------------|-------------------|-------------------|-------------------|


                                                                                
--0--------0-------|--0--------0-------|--0--------0-------|--0--------0-------|
--5--------5-------|--3--------3-------|--3--------3-------|--0--------0-------|
-----2--------0----|-----2--------2----|-----2--------2----|-----2--------1----|
-----2-------------|--0-----0-----0----|--2-----2-----2----|--2-----------2----|
--3-----3-----2----|-------------------|-------------------|-------------------|
-------------------|-------------------|-------------------|--------0----------|


                                                                           
--0--3----0-------|-------0---------|------------------|------------------|
--1----------1----|--3--------------|--0h-3----0-------|------------------|
--2---------------|------------2----|--0----------0----|--2-------2-------|
------------------|-----------------|--2---------------|-------2----------|
--0---------------|-----------------|------------------|--0----------0----|
------------------|--2--------------|--0---------------|------------------|


                                                                           
--0--3----0-------|-------0---------|------------------|------------------|
--1----------1----|--3--------------|--0--3----0-------|------------------|
--2---------------|------------2----|--0----------0----|--2-------2-------|
------------------|-----------------|--2---------------|-------2----------|
------------------|-----------------|------------------|--0----------0----|
--2---------------|--2--------------|--0---------------|------------------|


                                                                              
--5--------5-------|--3--0-------------|-----0------------|--3---------------|
--3--------3-------|-----------1-------|--3-------3-------|--3---------------|
-------------------|--------------2----|-------------2----|-------------0----|
--4--0-----4--0----|--------2----------|------------------|-------------0----|
--------0----------|--0----------------|------------------|-------0h-2-------|
-------------------|-------------------|--2---------------|--3---------------|


                                                                              
--5--------5-------|--3--0-------------|-----0------------|--0---------------|
--3--------3-------|-----------1-------|--3-------3-------|--0---------------|
-------------------|--------------2----|-------------2----|--2-------2--1----|
--4--0-----4--0----|--------2----------|------------------|-------------2----|
--------0----------|--0----------------|------------------|-------2----------|
-------------------|-------------------|--2---------------|--0---------------|


                                                                        
-------3----0----|-----------------|-----------------|-----------------|
-----------------|------------3----|-----------------|-----------------|
--2--------------|-----------------|-------5---------|------------1----|
-----------------|-------2---------|--0---------7----|-------2---------|
--0--------------|-----------------|-----------------|-----------------|
-----------------|--3--------------|--5--------------|--0--------------|


                                                                        
-------3----0----|-----------------|-----------------|-----------------|
-----------------|------------3----|-----------------|-----------------|
--2--------------|-----------------|-------5---------|------------1----|
-----------------|-------2---------|--0---------7----|-------2---------|
--0--------------|-----------------|-----------------|-----------------|
-----------------|--3--------------|--5--------------|--0--------------|


                                                                        
-------3----0----|-----------------|-----------------|-----------------|
-----------------|------------3----|-----------------|-----------------|
--2--------------|-----------------|-------5---------|------------1----|
-----------------|-------2---------|--0---------7----|-------2---------|
--0--------------|-----------------|-----------------|-----------------|
-----------------|--3--------------|--5--------------|--0--------------|


                                                                           
-------3----0----|-----------------|-----------------|--------------0--2--|
-----------------|--3----1---------|-----------------|-----------1--------|
--2--------------|------------2----|------------1----|--2-----2-----------|
-----------------|------------1----|--2--------------|-----2--------------|
-----------------|-----------------|-----------------|--0-----------------|
--1--------------|--1--------------|-------0---------|--------------------|


                   
--3--0--5--------||
--------5--------||
--4-----5--------||
--2--------------||
--------0--------||
-----------------||





Comments


Popular John Renbourn tabs & chords
Arc Et Senans Tabs
Bransle Gay Tabs
Faro Rag Tabs
Lady Nothings Toye Puffe Tabs
Sweet Potato Tabs
The Buffalo Skinners Tabs
Winter Is Gone Intro Tabs
Winter Is GoneIntro Tabs


Song lyrics



↑ Back to top | Tablatures and chords are parodies/interpretations of the original songs. You may use it for private study, scholarship, research or language learning purposes only
© 2014 AZChords.com Contact us | Privacy policy | DMCA | Add/correct tabs | Request tabs | Top 50 tabs