» » »

John Renbourn, Arc Et Senans Tabs (ver.1)

Artists:  A B C D E F G H I J K L M N O P Q R S T U V W X Y Z # 

Arc Et Senans Tabs (ver.1)

John Renbourn Tabs
 Rating:
4/5 (4 votes)
Arc Et Senans lessons Tabs too difficult? Try these video lessons and learn fast
1
                #------------------------------------------------------------------------------##

                                  ARC ET SENANS
                          As recorded by John Renbourn


Gtr I (D A D G B E) - 'Dropped D steel string'

    Q=96
   4/4
    Gtr I
    E E E E E E E E   E E E E E  E E E   H       E E E E   H       E E E E
||--------1p0---0h1-|-0---0h1--------1-|-0---------------|-0----------------|
||o-----3-----3-----|---3-----3----3---|-------1---3-1-3-|-------1-----1----|
||----2-------------|------------2-----|-----2-----------|-----2-----2---2--|
||--0---------------|------------------|---2-------------|---2--------------|
||o-----------------|------------------|---------0-------|---------0--------|
||------------------|------------------|-----------------|------------------|
    H       H         H       Q.     E   E E E E H         E E E E H


  E E E E E E E E   E E E E  E  E E E   H       E E E E   H       H
|-------1p0---0h3-|-1p0---1p=0----0h1-|-0---------------|-----------------|
|-----3-----3-----|-----3-------3-----|-------1---3-3S1-|-1---------------|
|---2-------------|-------2-(2)-------|-----2-----------|-------0---------|
|-0---------------|-------------------|---2-------------|---0h2-----2p0---|
|-----------------|-------------------|---------0-------|---------0-----3-|
|-----------------|-------------------|-----------------|-----------------|
  H       H         Q.    E +H          E E E E H         E E E E E E E E


  E E E E Q    E E   Q.     E H         E a E E E H         H       H
|-----5----------0-|-0----------------|---------0-0-------|-----------------|
|-------6-8--------|--------3-3-------|-------8---0-------|-----------------|
|---4----------5---|------2---------0-|---4S5-----------0-|-2-------2-------|
|-0----------------|----3---------3---|-------------------|-----------2---0-|
|-----------7------|------------2-----|-0-------------7---|---3---3-----3---|
|------------------|------------------|-------------5-----|-----3-----------|
  H       E Q.       E  E Q   E E E E   H         E E E E   E E E E E E E E


  Q    E  E Q.     E   Q.     E  Q.     E
|------------------0-|-0---------0--------|
|---------0----------|--------3---------0-|
|------5----2--------|--------2-(2)-----5-|
|---0-(0)-0----2h3---|------3---------2---|
|--------------------|----2---------0-----|
|-5---------0--------|--------------------|
  E E +E  E E  E Q     E  E E E +E  E E E


  E E E E Q.     E   H       H
|---3--------------|------------------||
|-----5-6S5------0-|-0---------------o||
|---5------------5-|-7---------0------||
|-0------------5---|---0---0----------||
|------------0-----|-----8-------7S8-o||
|------------------|---------5--------||
  H       E  E E E   E E E E E E E E


  E E E E Q.     E   Q.     E H         E E E E Q.     E   Q.     E H
|---3--------------|------------------|------------------|------------------|
|-----5-6-5------3-|-5------0-3-------|---3p0---0--------|-0----------------|
|---5------------4-|--------5-2-----2-|-------5--------2-|--------0-2-------|
|-0------------3---|------2-------3---|---5------------3-|------0---------0-|
|------------------|----0-------2-----|-0------------2---|------------3-----|
|------------5-----|------------------|------------0-----|----2---------3---|
  H       E  E E E   E  E E E E E E E   H       E  E E E   E  E E E E E E E


  H.=H
  Q    E  E Q.     E   Q.     E  H
|------------------3p|=0-----------0-----|
|---------0----------|--------3-10-------|
|------5----2--------|--------2------7-9-|
|---0-(0)------2h3---|------3---10-------|
|--------------------|----2------0-------|
|-5---------0--------|-------------------|
  E E +Q    E  E Q     E  E E E  E E E E


    E  E  +E  E Q.     E    E E E E  H
|------0--(0)-0-0--------|--------0--------*|
|---------------3--------|----6S8----------*|
|--10-----------2------5-|-/7-------<7>----*|
|--------<12>------2-----|--0-------<7>----*|
|-<12>---------------0---|-----------------*|
|------------------------|--0--------------*|
    Q      Q    E  E Q      H        H


Duration Legend
---------------
W - whole; H - half; Q - quarter; E - 8th; S - 16th; T - 32nd; X - 64th; a - acciaccatura
+ - note tied to previous; . - note dotted; .. - note double dotted
Uncapitalized letters represent notes that are staccato (1/2 duration)
Irregular groupings are notated above the duration line
Duration letters will always appear directly above the note/fret number it represents the
duration for.  Duration letters with no fret number below them represent rests.  Multi-
bar rests are notated in the form Wxn, where n is the number of bars to rest for.  Low
melody durations appear below the staff

Tablature Legend
----------------
 h   - hammer-on
 p   - pull-off
 b   - bend
 pb  - pre-bend
 r   - bend release (if no number after the r, then release immediately)
 /\  - slide into or out of (from/to "nowhere")
 s   - legato slide
 S   - shift slide
  - natural harmonic
[n]  - artificial harmonic
n(n) - tapped harmonic
 ~   - vibrato
 tr  - trill
 T   - tap
 TP  - trem. picking
 PM  - palm muting
\n/  - tremolo bar dip; n = amount to dip
 \n  - tremolo bar down
 n/  - tremolo bar up
/n\  - tremolo bar inverted dip
 =   - hold bend; also acts as connecting device for hammers/pulls
 <>  - volume swell (louder/softer)
 x   - on rhythm slash represents muted slash
 o   - on rhythm slash represents single note slash

Misc Legend
-----------
 |  - bar
||  - double bar
||o - repeat start
o|| - repeat end
*|  - double bar (ending)
 :  - bar (freetime)
 $  - Segno
 &  - Coda
Tempo markers -  = BPM(8/16=s8/s16), where s8 = swing 8ths, s16 = swing 16ths
            
Submit corrections

comments powered by Disqus
↑ Back to top | John Renbourn Tabs for Arc Et Senans. Lyrics for acoustic guitar and electric guitar. 1 Tablatures and chords are parodies/interpretations of the original songs. You may use it for private study, scholarship, research or language learning purposes only