» » »

Sam Hall Tabs (ver.2)

Artists:  A B C D E F G H I J K L M N O P Q R S T U V W X Y Z # 

Sam Hall Tabs (ver.2)

Johnny Cash
Rating:
0/5 (0 votes)

Tabs too difficult? Try these video lessons and learn fast.
                I play this song in the key of G (which is capo on 3rd fret) It sounds good. as far as I
I think the two main chords in the song are C and F in the key of G (the shapes for
chords are A and D) I think the bends are only a semi-tone. Well here it is! Give me 
views on it and I will try to improve it if it needs to be!

b= bend a semitone
/= slide up to the note

E|---------------------------------------|
B|---------------------------------------|
G|---------------------------------------|
D|---------------------------------------|
A|-----------3--5b--5b--3-----------3----|
E|--3--5--7----------------5--3--5-------|

E|---------------------------------------|
B|---------------------------------------|
G|---------------------------------------|
D|--------5--5--5--5--7--5--------5------|
A|--3--3--------------------7--5---------|
E|---------------------------------------|

E|---------------------------------------|
B|---------------------------------------|
G|--------5-5-5-5-5-5-5-5-5-5-5-5-----5--|
D|--5--5------------7--------------7-----|
A|---------------------------------------|
E|---------------------------------------|

E|---------------------------------------|
B|---------------------------------------|
G|-----------------------------------5---|
D|--7--5---------7b--5--------/5--7------|
A|--------6b--3---------6--3-------------|
E|---------------------------------------|
            
Tabs too difficult? Try these video lessons and learn fast.




comments powered by Disqus
↑ Back to top | Tablatures and chords are parodies/interpretations of the original songs. You may use it for private study, scholarship, research or language learning purposes only