» » »

One Piece At A Time ( Tabs (ver.1)

Artists:  A B C D E F G H I J K L M N O P Q R S T U V W X Y Z # 

One Piece At A Time ( Tabs (ver.1)

Johnny Cash
Rating:
0/5 (0 votes)

Hard to play? Try these video lessons and learn fast.
                Tuning: Standard (E A D G B E)





E|-------------------------------------||
B|-------------------------------------||
G|-------------------------------------||
D|------0-1-1-0------------------------||
A|--0-3---------3-0--------------------||
E|1------------------------------------||


E|-------------------------------------||
B|-------------------------------------||
G|------0-1-1-0------------------------||
D|--0-3---------3-0--------------------||
A|1------------------------------------||
E|-------------------------------------||


E|-------------------------------------||
B|-------------------------------------||
G|-------------------------------------||
D|-------------------------------------||
A|-3-5-6-5-3-1-------------------------||
E|-------------3b-3b-1-----------------||
            
Hard to play? Try these video lessons and learn fast. | Correct




comments powered by Disqus
↑ Back to top | Tablatures and chords are parodies/interpretations of the original songs. You may use it for private study, scholarship, research or language learning purposes only