» » »

Johnny Cash, Folsom Prison Blues Tabs (ver.2)

Artists:  A B C D E F G H I J K L M N O P Q R S T U V W X Y Z # 

Folsom Prison Blues Tabs (ver.2)

Johnny Cash Tabs
 Rating:
4/5 (4 votes)
Folsom Prison Blues lessons Tabs too difficult? Try these video lessons and learn fast
                Capo on 1

chords are e7(really f7), a7(a#7), and b7(C7)

intro/outro:

e----------------------------
b----------------------------
g----------------------------
d---------1-1-1--------------
a--2-2-2--------2------------
E------------------2br~--0---

Verse:

E7
I hear the train a coming, its rollin round the bend, 

And I ain't seen the sunshine since i don't know when
A7                                                E7
im stuck in folsom prison and time keeps draggin on.
B7                                           E7
but that train keeps a rollin on to san antone.

Riff1

e-----7-10-7-10-7-----7-10-7-10~-----7-10-7-10-7----7-10-7-10~-7-3-0
b--8h9------------8h9------------8h9-------------8h9----------------
g-------------------------------------------------------------------
d-------------------------------------------------------------------
a-------------------------------------------------------------------
E-------------------------------------------------------------------

Riff2(right after riff 1)
                                    A7  E7   B7   E7
e--000--3-5----3-5-------9-----------------------------------
b--222-0---5-2----5--5--8-8--5-------------------------------
g--000-------------------------------------------------------
d------------------------------------------------------------
a------------------------------------------------------------
E------------------------------------------------------------

order:
Intro/Outro
verse
verse
riff1
riff2
verse
riff1
riff2
verse
intro/outro

I don't have the rest of the words to the song...Just listen to it for them.  
There are someparts im sure arn't correct but its close and should be good enough to get you started  
Riff 2 might be a bit off...Listen to the recording to get it perfect.

One of Cash's best songs right here he was a great man..
            
Submit corrections

comments powered by Disqus
↑ Back to top | Johnny Cash Tabs for Folsom Prison Blues. Lyrics for acoustic guitar and electric guitar. Tablatures and chords are parodies/interpretations of the original songs. You may use it for private study, scholarship, research or language learning purposes only