>
 >
Big River 1

Big River 1 Guitar Tabs

Johnny Cash - Big River 1 chords, tabs, tablatures, lyrics

Guitar lessons | Add/correct | Request | Top 50 tabs Artists:  A B C D E F G H I J K L M N O P Q R S T U V W X Y Z 0-9

Big River 1 Guitar Tabs – Johnny Cash

CD, Sheet music, Poster

Do you like Big River 1? Share with your friends now
ChordsChords v2Chords v3Chords v4Chords v5Chords v6TabsTabs v2Ukulele
Big River:Johnny Cash.
#14 on the Pop Charts in 1958.

           (Capo 1st fret.)

INTRO: /RIFF#1. (x2)
E
---------------------------------------|
---------------------------------------|
---------------------------------------|
---------------------------------------|
---2-2-0------------2-2-0--------------|
----------2-0--------------2-0---------|

#1.
E
Now I taught the weeping willow how to cry.
                                          B
And I showed the clouds how to cover up a clear blue sky.
        E
And the tears that I cried for that woman are gonna
A
flood you Big River.
     E                   B            E    E G E
Then I'm gonna sit right here until I die.

#2.
E
I met her accidentally in St. Paul, Minnesota.
                                         B
And it tore me up every time I heard her drawl, Southern drawl.
       E                                        A
Then I heard my dream was back downstream, cav..ortin' in Davenport,
      E                 B               E       E G E
and I followed you, Big River, when you called.

(INTERLUDE:)

RIFF:
-----------------------------------------------------------|
-----------------------------------------------------------|
-----------------------------------------------------------|
----------------------------2-2-0--------------------------|
----2-2-0------2-2-0---------------2--0------2-2-0---------|
----------2-0---------2-0---------------------------2-0----|


---------------------------------------------------|
---------------------------------------------------|
---------------------------------------------------|
----------1-1--------------------------------------|
---2-2-2-------2-----------------------------------|
-------------------2-0-----------------------------|

#3.
E
Then you took me to St. Louis, later on down the river.
                                           B
A freighter said she's been here but she's gone, boy, she's gone.
  E                                        A
I found her trail in Memphis, but she just walked up the block.
             E                         B             E     E G E
She raised a few eyebrows and then she went on down alone.

#4.
E
Now, won't you batten down by Baton Rouge, River Queen, roll it on.
                               B
Take that woman on down to New Orleans, New Orleans.
   E                            A
Go on, I've had enough..dump my blues down in the Gulf.
    E              B                E    E G E    E G E
She loves you, Big River, more than me.


A fifties smash from Kraziekhat.





Comments


Popular Johnny Cash tabs & chords
Darling Companion Bass Tabs
Cocaine Blues(capo) Chords
Cocaine Carolina Chords
Dark As The Dungeon Chords
Ghost Riders In The Sky 2 Chords
It Comes And Goes Chords
Like The 309 1 Chords
That Old Wheel Chords
Delia's Gone Tabs
Gods Gonna Cut You Down 1 Tabs


Song lyrics



↑ Back to top | Tablatures and chords are parodies/interpretations of the original songs. You may use it for private study, scholarship, research or language learning purposes only
© 2014 AZChords.com Contact us | Privacy policy | DMCA | Add/correct tabs | Request tabs | Top 50 tabs