» » »

Lonesome Tears In My Eyes Tabs (ver.1)

Artists:  A B C D E F G H I J K L M N O P Q R S T U V W X Y Z # 

Lonesome Tears In My Eyes Tabs (ver.1)

Johnny Burnette And The Rock N Roll Trio
Rating:
0/5 (0 votes)

Hard to play? Try these video lessons and learn fast.
                classic song, here's the way i play it. hope this helps.


                     "Lonesome Tears In My Eyes" by Johnny Burnette & the Rock n Roll Trio


|--4--5--7-|-9---9--9--9--|-9--9--9--|-9--9--9--7-5-|--4--4--4--2--0-|-4--4--4--2--0-|
|--5--7--9-|-10--10-10-10-|-10-10-10-|-10-10-10-9-7-|--5--5--5--3--0-|-5--5--5--3--0-|
|----------|--------------|----------|--------------|----------------|---------------|
|----------|--------------|----------|--------------|----------------|---------------|
|----------|--------------|----------|--------------|----------------|---------------|
|----------|--------------|----------|--------------|----------------|---------------|

|--4--4--4--2--0-|-4--4--4--2--0-|
|--5--5--5--3--0-|-5--5--5--3--0-|
|----------------|---------------|
|----------------|---------------|
|----------------|---------------|
|----------------|---------------|
E
Oh baby, baby, baby
  A                        A
Blues and sorrow And I love you tomorrow
           E
seems to suit you just fine
 
 E
Oh baby, baby, baby
  A                        A
Blues and sorrow And I love you tomorrow
           E
seems to suit you just fine

                          D                         A
I can't forget that you told me ,So many promising lies
                     E
i'm gonna try to forget these
                      A
Lonesome tears in my eyes


next verse:
You've broken my heart, Gonna do it again
   I can't get outta this spell, you've got me in
   I can't forget that you told me, So many promising lies
   I'm a-trying to forget these, Lonesome tears in my eyes

and end with:

|--4--5--7-|-9---9--9--9--|-9--9--9--|-9--9--9--7-5-|
|--5--7--9-|-10--10-10-10-|-10-10-10-|-10-10-10-9-7-|
|----------|--------------|----------|--------------|
|----------|--------------|----------|--------------|
|----------|--------------|----------|--------------|
|----------|--------------|----------|--------------|

|--4--4--4--2--0--4--|-12-12-12-|
|--5--5--5--3--0--5--|-12-12-12-|
|--------------------|----------|
|--------------------|----------|
|--------------------|----------|
|--------------------|----------|


and thats all! Rockabilly Rules!

-Bert
            
Hard to play? Try these video lessons and learn fast. | Correct




comments powered by Disqus
↑ Back to top | Tablatures and chords are parodies/interpretations of the original songs. You may use it for private study, scholarship, research or language learning purposes only