>
 >
I Swear

I Swear Bass Tabs

John Michael Montgomery - I Swear chords, tabs, tablatures, lyrics

Guitar lessons | Add/correct | Request | Top 50 tabs Artists:  A B C D E F G H I J K L M N O P Q R S T U V W X Y Z 0-9

I Swear Bass Tabs – John Michael Montgomery

CD, Sheet music, Poster

Do you like I Swear? Share with your friends now
Bass TabsChordsChords v2Chords v3TabsTabs v2Ukulele
JOHN MICHAEL MONTGOMERY
I SWEAR


                **MOST NOTES ARE HELD AT LEAST 2 COUNTS!!!!!**
intro:
x1

g|-------------------------||
d|-------------------------||
a|--3*----0----------------||
e|----------------0*-----1*||

verse:
x1

g|-----------------------------------------------------------------------|
d|-----------------------------------------------------------------------|
a|-3---------3-------------0-------------3---------------3--------------0|
e|----1--0--------1----3--------1---3----------1----0---------1----3-----|
                                                              next line
g|----------------------||
d|---------0------------||
a|-3--------------------||
e|----3--------2---4444-||
                   ^dont hold these lay them as quarter notes
chorus:
x1
   for solo only play this then switch to chorus below
g|-------------------------|---------------------------------------------||
d|-------------------------|---------------------------------------------||
a|--3----0--------------3--|-0-----------0------------0----------------3-||
e|-----------0---1--3------|-----1---3-------1----3---------1----3-------||

next parts to play:
intro part
verse
chorus 
solo(chorus)

chorus:
x1

g|---|-------------------------------------------------------------------||
d|---|----0-----------------0------------------0----------0--------------||
a|--3|--3----3-----------------3---0-----------------------------------3-||
e|---|----------0--1---3---------------1----3-------1---3-----1---3------||
    ^C from the chorus above just start off here after it


thats about it for this song if u listen for the timeing its a lot easier or play
along with the lyrics down below to gt the vibe of how it goes:

VERSE #1
I see the questions in your eyes
I know whats weighing on your mind
But you can be sure i know my part
Cause I'll stand beside you throught the years
You'll only cry those happy tears
And though I'll make mistakes
I'll never break your heart

CHORUS #1
I swear bye the moon and stars in the sky 
I'll be there
I swear bye the shadow thats by your side
I'll be there
For better or worse
Till death do us part
I'll love you with every beat of my heart
I swear

VERSE #2
I'll give you everything I can
I'll build your dreams with these two hands
We'll hang some meories on the walls
And when theres silver in your hair
You wont have to ask if I still care
Cause as time turns the page I'll never break your heart

CHORUS 
SOLO 

CHORUS #3
I swear 
By the shadow thats by your side
I'll be there
For better or worse
Tll death do us part
I'll love you with every beat of my heart
I swear





Comments


Popular John Michael Montgomery tabs & chords
Hold On To Me V2 Chords
Holdin' On To Something Chords
I Never Stopped Loving You Chords
I Swear Chords
Letters From Home Chords
Letters From Home (no Capo) Chords
Little Girl Intro Tabs
Sold (intro+solo) Tabs
I Could Love You Like That Ukulele
Love Workin On You Ukulele


Song lyrics



↑ Back to top | Tablatures and chords are parodies/interpretations of the original songs. You may use it for private study, scholarship, research or language learning purposes only
© 2014 AZChords.com Contact us | Privacy policy | DMCA | Add/correct tabs | Request tabs | Top 50 tabs