» » »

Slow Dancing In A Burning Room Tabs (ver.1)

Artists:  A B C D E F G H I J K L M N O P Q R S T U V W X Y Z # 

Slow Dancing In A Burning Room Tabs (ver.1)

John Mayer
Rating:
0/5 (0 votes)

Hard to play? Try these video lessons and learn fast.
                ----------------------
"Slow Dancing in a Burning Room"
------------------


Guitar I.
e----------------------------------------------------------------------------|
B----------------------------------------------------------------------------|
G-------9--9/8--6/4--6/4-----------9---9/8--6/4------------------------------|
D------------------------6----------------------6--4-------------------------|
A-9/11~~----------------------9/11~~--------------------7--------------------|
E----------------------------------------------------------------------------|

e--9--9/12--12/11--9/7--9-7------9--9/12---12/11--9/7---------------------|
B---------------------------9-------------------------9-7-----------------|
G---------------------------------------------------------9---------------|
D-------------------------------------------------------------------------|
A-------------------------------------------------------------------------|
E-------------------------------------------------------------------------|

Guitar II.
e-----------------------------|
B-----------------------------|
G-----------------------------|
D-----14---14-----------------|
A-----16---16-------14--------| X2
E-------------14h16----16/14--|

verse.
it's not a silly...
e---------------9-------------------------6---------|
B---------------9-------------------------6---------| not sure about all of this...kind of how it goes
G---------------9------------6------------6---------|
D--------------------6-8-6-8---6/8 6--------6-8-6/--|
A---------------------------------------------------|
E---------------------------------------------------|
chorus. play around with
e--0-0-0-0-0-|
B-4-4-4-4-4--|
G------------|
D------------|
A------------|
E------------|


solo.
e-------9b11r9-----------------------------9-12-9-12-9--14b-12-------------------------------|
B--9h12--------9b11r9---7b9r7b9r7-----9-12-------9----9----------14-12--12b------------------|
G--------------------------------9/-----------------------------------13---13-11--13p11-13b--|
D-------------------------------------------------------------------------------13-----------|
A--------------------------------------------------------------------------------------------|
E--------------------------------------------------------------------------------------------|

those are most of the parts, i think. i can't decipher the riff that plays over the song 
the end, sorry. maybe john mayer will get on and tab it for us.
            
Hard to play? Try these video lessons and learn fast. | Correct




comments powered by Disqus
↑ Back to top | Tablatures and chords are parodies/interpretations of the original songs. You may use it for private study, scholarship, research or language learning purposes only