» » »

John Mayer, Neon Tabs (ver.2)

Artists:  A B C D E F G H I J K L M N O P Q R S T U V W X Y Z # 

Neon Tabs (ver.2)

John Mayer Tabs
 Rating:
4/5 (4 votes)
Neon lessons Tabs too difficult? Try these video lessons and learn fast
                John Mayer - Neon
Drop C Tuning
A|-0-
E|-9-

(0) - ghost note
/   - slide down
h   - hammer on
x   - muted note


Intro / Verse
e|---------------------------------------------------------------------------|
B|-------8-----------------4-----------------4-----------9-----8-------------|
G|---------10\---(3)---3-----3-----------------3--------8-----7--------------|
D|-----------------------------3--5h6----6-------6-----8----10---------------|
A|----------------------------------------------------x----x-----------------|
E|-0-(0)-------------3---3-----3-------5---5---------8----10-----------------|

...she comes and goes...(first time)
E|----------|
B|-6-6-4----|
G|-5-5-3----|
D|-8-8-6----|
A|-x-x-x----|
E|-8-7-6----|

...she comes and goes...(rest of the times)
E|----------|
B|-6-6-4-6-4|
G|-5-5-3-5-5|
D|-8-8-6-8-6|
A|-x-x-x-x--|
E|-8-7-6-7--|

...neon, neon...
e|----------------------------|
B|--4--6--4------11--9--------|
G|--3--5--3------10--8--------|
D|--6--8--3h5----10--8--------|
A|--x--x----------x--x--------|
E|--5--7---------10--8--------|

Bridge
e|----------------------------|
B|---4--6--7---9--------------|
G|---5--7--8--10--------------|
D|---6--8--9--11--------------|
A|---x--x--x---x--------------|
E|---5--7--8--10--------------|


Hard song to learn, but real easy to play once you get the hang.  Enjoy. Head
            
Submit corrections

comments powered by Disqus
↑ Back to top | John Mayer Tabs for Neon. Lyrics for acoustic guitar and electric guitar. Tablatures and chords are parodies/interpretations of the original songs. You may use it for private study, scholarship, research or language learning purposes only