» » »

John Mayer, Love Soon Tabs (ver.1)

Artists:  A B C D E F G H I J K L M N O P Q R S T U V W X Y Z # 

Love Soon Tabs (ver.1)

John Mayer Tabs
 Rating:
4/5 (4 votes)
Love Soon lessons Tabs too difficult? Try these video lessons and learn fast
                
Standard tuning
note: all low e notes should be played with thumb 


Part A: intro and verse 

e----x---x----x----x---- 
b----3---1----8----8---- 
g----0---0----0---11---- 
d----5---3---10---10---- 
a----x---x----x----x---- 
e----3---1----8---10---- 


Part B: "Did you expect to kiss me one time?..." 

e----x---x---x---- 
b----2---3---3---- 
g----2---2---2---- (2x) 
d----2---0---0---- 
a----0---x---x---- 
e----x---3---2---- 


Part C: "So come on and face it..." 

e----0---0---0---- 
b----0---0---0---- 
g----2---1---2---- (2x) 
d----0---2---2---- 
a----2---2---2---- 
e----x---0---0---- 


Part D: "It's time that we say it" 

e----0---5---x---x---- 
b----3---5---x---x---- 
g----5---5---5---7---- 
d----5---4---5---7---- 
a----x---5---3---5---- 
e----5---x---x---x---- 


Part E: Chorus 

e---(3)--x---x---10---- 
b----3---7---8----8---- 
g----0---7---7----7---- (3x) 
d----5---7---5---10---- 
a----5---5---x----x---- 
e----3---x---5----8---- 


Part F: Post-Chorus: "It's what, we are" 

e----x---5---- 
b----5---5---- 
g----5---5---- 
d----5---4---- 
a----x---5---- 
e----5---x---- 


Part G: Bridge i think: "Let's bypass the bullsh*t..." 

e----10---3--(3)--10---x--x----x---x---- 
b-----8---3---4----8---4--5----5---7---- 
g-----8---0---4----7---6--6----5---7---- 
d-----8---0---0----9---5--5----5---7---- 
a-----x---x---x----7---x--x----x---x---- 
e-----8---3---3----x---5--5----5---7---- 


Part H: "The bottom line is layin' in..." 

e-----x----x---- 
b-----x----x---- 
g----10---12---- (2x) 
d-----8---10---- 
a-----6----8---- 
e-----x----x---- 


Part I: Ending: "I'm callin' it love soon" 

e----x---x---x---- 
b----3---3---1---- 
g----x---2---x---- 
d----5---0---3---- 
a----x---x---x---- 
e----3---2---1---- 


Part J: final chord 

e----5---- 
b----3---- 
g----0---- 
d----4---- 
a----2---- 
e----0---- 


Part K: Optional filler for ending (only played live) 

e----5---3---8---10---- 
b----3---1---6----8---- 
g----x---x---x----x---- (any combination of these four chords) 
d----5---3---8---10---- 
a----x---x---x----x----
e----x---x---x----x---- 


I know you've been sworn
I read your complaint
You're needing someone older
And though I've been warned to live day by day
There's something taking over

Did you expect to kiss me one time
while looking at me with the same eyes ever again?
So come on and face it
So come on and face it
It's time that we say it

You can cross the line whenever you want to
I'm calling it love soon
Close your mind and waste some time if you have to
I'm calling it love soon
It's not about you now
It's what we are

Your mother complains that you need a man
You haven't mentioned me yet
And all of your friends don't know who I am
I've been your best kept secret

I understand I wasn't part of the plan
A dollar short, a minute early
But I am your man
So come on and face it
So come on and face it
it's time that we say it

You can cross the line whenever you want to
I'm calling it love soon
Close your mind and waste some time if you have to
I'm calling it love soon
It's not about you now
It's what we are

Aet's bypass the bullsh*t and move on because
the minute hand moves faster than you think it does
And by no fault of yours 
And by no fault of mine
The bottom line is laying 
in the bed that we've been playing in tonight

You can cross the line whenever you want to
I'm calling it love soon
Close your mind and waste some time if you have to
I'm calling it love soon
It's not about you now
It's what we are

(Lyrics from sixfeetsmall.com)
            
Submit corrections

comments powered by Disqus
↑ Back to top | John Mayer Tabs for Love Soon. Lyrics for acoustic guitar and electric guitar. Tablatures and chords are parodies/interpretations of the original songs. You may use it for private study, scholarship, research or language learning purposes only