» » »

Love Song For No One Tabs (ver.3)

Artists:  A B C D E F G H I J K L M N O P Q R S T U V W X Y Z # 

Love Song For No One Tabs (ver.3)

John Mayer
Rating:
0/5 (0 votes)

Hard to play? Try these video lessons and learn fast.
                John Mayer-Love Song For No One
Any questions just e-mail me

Thanks to h0megr0wnkid, his tab was the basis for mine, I just made some minor corrections.


Capo on 2nd Fret

Intro 

e---3---0--3---0---0--- ---2---0--3---0---0--- 
b---3---0--1---3---3--- ---3---0--1---3---3--- 
g---0---0--0---0---0--- ---0---0--0---0---0--- 
d---0---2--2---x---x--- ---0---2--2---x---x--- 
a---x---0--0---2---3--- ---x---0--0---2---3--- 
e---3------------------ ---3------------------ 


Verse 
                                   (strum this one, listen for pattern)      
e----3-------------------------3--3<--8----- 
b----3-------------------------1--1---6----- 
g----0-------------------------0--0---x----- 
d----0---2---4--4—-4-(x2)------3--3---7----- 
a----x---x---x--x--x-----------x------x----- 
e-3------3---3--3--3--------1---------8----- 


Chorus 

e---3--2---7---0---0--- ---2---7---0---0--- 
b---3--3---8---8---3--- ---3---8---8---3--- 
g---0--0---7---0---0--- ---0---7---0---0--- 
d---0--0---7---5---x--- ---0---7---5---x--- 
a---x--x---9---7---3--- ---x---9---7---3--- 
e---3--3---7---0---x--- ---3---7---0---x--- 

After 1st chorus

e---2---0--3---0---0--- 
b---3---0--1---3---3--- 
g---0---0--0---0---0--- 
d---0---2--2---x---x--- 
a---x---0--0---2---3--- 
e---3------------------ 

Verse 
                                   (strum this one, listen for pattern)      
e----3-------------------------3--3<--8----- 
b----3-------------------------1--1---6----- 
g----0-------------------------0--0---x----- 
d----0---2---4--4—-4-(x2)------3--3---7----- 
a----x---x---x--x--x-----------x------x----- 
e-3------3---3--3--3--------1---------8----- 






2nd Chorus 

e---3--2---7---0---0--- ---2---7---0---0--- 
b---3--3---8---8---3--- ---3---8---8---3--- 
g---0--0---7---0---0--- ---0---7---0---0--- 
d---0--0---7---5---x--- ---0---7---5---x--- 
a---x--x---9---7---3--- ---x---9---7---3--- 
e---3--3---7---0---x--- ---3---7---0---x--- 

e----------------------
b-------1------1---1---
g-------0------0---0---
d-----2------0-----2---
a---0------2-------3---
e----------------------

e---------------------------
b-------1------1---3--3—--3-
g-------0------0---0--0---0-
d-----2------0-----2--2---2-
a---0------2-------3--3---3-
e---------------------------

e----------------------
b-------1------1---1---
g-------0------0---0---
d-----2------0-----2---
a---0------2-------3---
e----------------------

e--------------3-----
b-----1----1---1-----
g-----0----0---0-----
d-----2----0---3-----
a-----0----2---x-----
e--------------1-----


" You'll be so good for me.." 

e---2---7---0---0-0--- 
b---3---8---8---3-3--- 
g---0---7---0---0-0--- 
d---0---7---5---2-0--- 
a---x---9---7---3-3--- 
e---3---7---0---x-x--- 

End
e---3--2-3---2-3---2-3---2---3----------2-3---3--2--3--- 
b---3------3-----3-----3-----3--------3-------3-----3--- 
g---0------------------------0----------------0-----0--- 
d---0------------------------0---(x3)---------0-----0--- 
a---x------------------------x----------------x-----x--- 
e---3------------------------3----------------3-----3--- 

Thanks to h0megr0wnkid, his tab was the basis for mine, I just made some minor corrections.
            
Hard to play? Try these video lessons and learn fast. | Correct




comments powered by Disqus
↑ Back to top | Tablatures and chords are parodies/interpretations of the original songs. You may use it for private study, scholarship, research or language learning purposes only