» » »

John Mayer, Love Song For No One Tabs (ver.2)

Artists:  A B C D E F G H I J K L M N O P Q R S T U V W X Y Z # 

Love Song For No One Tabs (ver.2)

John Mayer Tabs
 Rating:
4/5 (4 votes)
Love Song For No One lessons Tabs too difficult? Try these video lessons and learn fast
1
                John Mayer
Love Song For No One

                          PLEASE RATE THIS TAB !!!

Intro 
|--3---0--0--3---3----3-----2----0--0--3----3----3--|
|--3---0--1--1---3----3-----0----0--1--1----3----3--|
|--4---0--0--0---0----0-----0----0--0--0----0----0--|
|--5---2--2--2---0----2-----0----2--2--2----0----2--|
|--5---0--0--0---2----3-----X----0--0--0----2----3--|
|--3------------------------3-----------------------|
Verse x2
|--3----x---x-----3---x----x---1-----8---8---|
|--0----x---x-----0---x----x---1-----8---8---|
|--0----x---x-----0---x----x---2-----10--9---|
|--0----2---4-----0---2----4---3-----10--10--|
|--x----x---x-----x---x----x---3-----10--10--|
|--3----3---3-----3---3----3---1-----8---8---|
Chorus
|--3--2------5-----0----3----2-----5----0----3--|
|--0--0------5-----0----3----0-----5----0----3--|
|--0--0------5-----0----0----0-----5----0----0--|
|--0--0------7-----2----2----0-----7----2----2--|
|--x--x------7-----2----3----x-----7----2----3--|
|--3--3------5-----0---------3-----5----0-------|
Verse
Chorus
Bridge 
|-------3------3------3--------3---------3---0--|
|-------3------3------3--------3---------3---0--|
|------0------0------0--------0--------0-----0--|
|----0------0------2--------0--------0-------2--|
|--0------2------3--------0--------2---------2--|
|--------------------------------------------0--|

|-------3------3------3--------3---------3---1--|
|-------3------3------3--------3---------3---1--|
|------0------0------0--------0--------0-----1--|
|----0------0------2--------0--------0-------3--|
|--0------2------3--------0--------2---------3--|
|--------------------------------------------1--|
Intro
Bridge
Chorus
Outro
|--3------3--2-----3--2--repeat--|
|--3---3--------3----------------|
|--0-----------------------------|
|--0-----------------------------|
|--x-----------------------------|
|--3-----------------------------|
            
Submit corrections

comments powered by Disqus
↑ Back to top | John Mayer Tabs for Love Song For No One. Lyrics for acoustic guitar and electric guitar. 1 Tablatures and chords are parodies/interpretations of the original songs. You may use it for private study, scholarship, research or language learning purposes only