>
 >
Lover Lay Down

Lover Lay Down Guitar Tabs

John Mayer - Lover Lay Down chords, tabs, tablatures, lyrics

Guitar lessons | Add/correct | Request | Top 50 tabs Artists:  A B C D E F G H I J K L M N O P Q R S T U V W X Y Z 0-9

Lover Lay Down Guitar Tabs – John Mayer

CD, Sheet music, Poster

Do you like Lover Lay Down? Share with your friends now
Tabs



Intro

e|-------------------------------------------------
b|-------------------------------------------------
g|------2-2/4---4-4/6---6-7---6\---------------0---
d|----------------------------------(x2)-----5-----
a|-------------------------------------------------
e|----2-------3-------5-----7-5\-----------3-------


Verses

e|---------------------------------------- ---------------------------------------
b|-------------------------------3----2--- ---------------------------------------
g|-------2~-0-0------------------2----2--- -------0h2-0-------0h2~-0h2~----2------
d|---------------4-\2---2-2/4------------- -----0-------/4-2---------------0------
a|--------------------0--------2----0----- ------------------0-----------2----0---
e|-----2------3--------------------------- ---2--------3--------------------------


e|------------------------------------ ---------------------------------------
b|------3----------------------------- ---------------------------------------
g|--------2h4--4-4p2---2---2h4-------- ------0h2-0----------------------------
d|-----------------------4------------ ----0--------2/4-4\2---2-2-2/4---------
a|-------------------0---------2--0--- ---------------------0----------2--0---
e|--2-2------3------------------------ ---2-------3---------------------------


e|-------------------------------- ---------------------------------------------
b|------3-0---0------------------- -------3-------------------------------------
g|------2-0---0--2---2h4---4~~~~-- -----0--2h4---4--4p2---2h4-2h4---4p2---(2)---
d|---------------2---2------------ ---------------------------------------------
a|-----------------0-----2----0--- ---------------------0---------2------0------
e|----2-----3--------------------- ---2--------3--------------------------------


e|-------------------------------- -------------------------------------
b|------------------------3---2--- ------------------------------2------
g|-----2h4---0------------2---2--- ---2h4~-0---------------------2------
d|------------/4-\2-2------------- ------------/4-\2-2-2-2h4------------
a|----------------0-----2---0----- ------------------0---------2----0---
e|---2-----3---------------------- ---2------3--------------------------


Chorus

e|-------------------------------------------------------------------------------
b|--------5----5--5--------------------------------3-3-3-3-3----3---3-3---3--3---
g|-----6--4h6--6--4------4----4------4-----------0h2-2-2-2-2----2h4-4-4p2-4--2---
d|-----7--7----------7---4h6--4h6----6p4-----------------------------------------
a|-----0-----------------7----7------7----7\-------------------------------------
e|-----------------------0--------0------------3--------------2------------------

e|-----5------------------------------------------------------------
b|-----5---5----5------------------3---3-3---3-3----3---3-3---3-3---
g|-----6---4h6--4------4--4--------2h4-4-4p2-2-2----2h4-4-4p2-2-2---
d|---------7-------7---6--6-----------------------------------------
a|---0-----------------7--7-----------------------------------------
e|---------------------0--0----0-3----------------2-----------------


Verses

e|------------------------------------ ---------------------------------
b|----------------------------3---2--- -----3-0---0---------2----3------
g|----2~-0--------------------2---2--- -----2-0---0-2-------2----2--2---
d|----------2/4-4\2---2\4------------- -------------2---------------2---
a|------------------0-------2---0----- ---------------(2)-0----2---0----
e|---2----3--------------------------- ---2-----3-----------------------


e|---------------------------- -------------------------------------------
b|------3--------------------- -----------------------------------3-------
g|-------/4---4\2-2---2/4----- -----------0h2-0---0---------------2---2---
d|----0----------------------- ---0-0-0------------/4---\2-2/4--------2---
a|------------------0-----2--- -----------------------0---------2---0-----
e|---2------3----------------- ---------2-------3-------------------------


e|------------------------------- -------------------------------------
b|-----3-3---3-3---2-5---3---2--- ------3-0----0-----------------2/----
g|-----2-0---0-0---2-0---2---2--- ------2-0------2---2/4-2/4-----2/----
d|------------------------------- ----0--------------------------------
a|---------------0-----2---0----- -----------------0---------0-2---0---
e|---2-----3--------------------- ---2-------3-------------------------


e|---------------------------------- ----------------------------------
b|--------------------------3--2---- ----------------------------3-----
g|----2-0-------------------2--2---- -----2h4-0------------------2-----
d|---------2/4-2-2-2-2/4------------ ------------/4--2-2-2-2/4---------
a|-----------------0------2----0---- --------------------0-----2---0---
e|---2---3-------------------------- ---2-------3----------------------

e|-----------/7-5-------------------- -----------/5-7-5----------------
b|-----3-3-3-/8-7----2-3----3----2--- -----3-3-3-/6-8-7--2-3---3---2---
g|-----2-2-2----0----2-0----2----2--- -----2-2-2---------2-2---2---2---
d|----------------------------------- ---------------------------------
a|------------------0-----2---0-0---- ------------------0----2---0-----
e|---2------------------------------- ---2-----------------------------

                
e|--------------/7---5----------------- -----------7---5-------------------
b|--------3-3-3-/8---7----2-2-3--3-2--- ----3-3-3-/8---7------2-3---3--2---
g|--------2-2-2--0-0------2-2-2--2-2--- ----2-2-2--0-0-0------2-2---2--2---
d|------------------------------------- -----------------------------------
a|---------------------0-0------2-0---- ------------------0-0-----2-------- 
e|----0-2------------------------------ --2---------------------------2----
                                                                                    

e|-------------------------------------------- --------------------------------------
b|-----3--------3-------2h3----------3----2--- ------2h3------3---------2h3---------3
g|-----2-2----2---2----2----2--0----x----2---- ------2-------2----------2-----2-2---2
d|---------------------------------4----2----- -----0--------0---------2------2-----4
a|--------------------0------0----2----0------ --------------------0-0-------0----2-0
e|---2-------3-------------------------------- ---2-------0-3------------------------


e|------------------------------------------------ -----------0----------------------
b|-------3-2~------------------------------------- -------3-2---------------------3-2
g|-------------4----4-2-2~----2-----4---0--------- ---------------0-2-2---2h4~-0--2-2
d|-----------5----5---------4---4---------4---0--- -----0----------------------------
a|------------------------0-------0---2-----0----- ---------------------0---------2-0
e|----2----------3-------------------------------- ---2---------3--------------------

                                                    
e|---------------------------------------------- --------------------------------
b|---------------------------------------3--2--- -----3-------3-----2----3---2---
g|---2h4~-0-0----------------------------2--2--- -----2-------2-----2----2---2---
d|--------------4-2p0---0h2-/4---2-0-0---------- -----0-----0-----2--------------
a|--------------------4----------------2--0----- ---------------0------2---0-----
e|---2--------3--------------------------------- ---2-----3----------------------
                                                  

e|---------------------------------- -----------------------------
b|---------------------------3------ -------------------------3---
g|-------2/4~----------------2--2--- -----2-2/4~--------------2---
d|-------------2/4-4\2-0h2------2--- -------------2/4-4\2-----x---
a|-----------------0-------2--0----- ---------------------0---2---
e|----0-2----3---------------------- ---2-------3-----------------





Comments


Popular John Mayer tabs & chords
Good Love Is On The Way Bass Tabs
Edge Of Desire Chords
Heart Of Life 2 Chords
St Patricks Day 1 Chords
Wheel 1 Chords
Half Of My Heart 2 Tabs
Im Gonna Find Another You Tabs
Waiting On The World To Change 1 Tabs
Gravity Ukulele
Love Song For No One Ukulele


Song lyrics



↑ Back to top | Tablatures and chords are parodies/interpretations of the original songs. You may use it for private study, scholarship, research or language learning purposes only
© 2014 AZChords.com Contact us | Privacy policy | DMCA | Add/correct tabs | Request tabs | Top 50 tabs