» » »

Daughters Tabs (ver.2)

Artists:  A B C D E F G H I J K L M N O P Q R S T U V W X Y Z # 

Daughters Tabs (ver.2)

John Mayer
Rating:
0/5 (0 votes)

Hard to play? Try these video lessons and learn fast.
                Daughters

(b) -Bend
/    - Slide

N.B
REMEMBER this song is in 3/4 timing, not the conventional 4/4, so your strumming is gonna be a little different. Dont worry though....like I did...it's not hard...well that hard.

Intro: Solo (This plays during the intro, over the chord sequence below, sounds like a classical guitar, but an standard acoustic will be fine - go electric if you really want to)

E---------------------------------------------------------------- 
B---------------------------------------------------------------- 
G-----------12---11---12---11----6----7-----6----7----9----7(b)
D--11---12----------------------9----------9-------------------
A---------------------------------------------------------------- 
E----------------------------------------------------------------

Intro and Verse: Chords (Its 3/4 timing and each chord is played for TWO bars, this changes in the chorus)

       B-7           E-7            A-11           Dmaj
E---2----------0-----------2-----------2------------------------
B---3----------3-----------3-----------3------------------------
G---2----------0-----------4-----------2------------------------
D---4----------0-----------5-----------0------------------------
A---2----------2-----------0-----------X------------------------
E---X----------X----------5-----------X------------------------

Chorus (This time the chord shape for E-7 is slightly different, but its basially the same sequence as above EXCEPT, its only played for one bar, each chord is only played for ONE bar)

       B-7           E-7 (2)      A-11             Dmaj
E---2----------0-----------2-----------2------------------------
B---3----------4-----------3-----------3------------------------
G---2----------1-----------4-----------2------------------------
D---4----------0-----------5-----------0------------------------
A---2----------2-----------0-----------X------------------------
E---X----------X----------5-----------X-------------------------

In between the next verse and stuff is another solo, The strumming pattern chnages after this and the chords change slightly, but for the next short solo, the chord sequence stays the same

Bridge: Solo

E---------------------------------------------------------------- 
B---------------------------------------------------------------- 
G------------------7---6(b)-------9---7-------------------------- 
D---9----5----7-----------7--------------------------------------
A---------------------------------------------------------------- 
E----------------------------------------------------------------

Rest will come soon...sorry...Ive got exams to keep up with!
            
Hard to play? Try these video lessons and learn fast. | Correct




comments powered by Disqus
↑ Back to top | Tablatures and chords are parodies/interpretations of the original songs. You may use it for private study, scholarship, research or language learning purposes only