» » »

John Mayer, Daughters Tabs (ver.1)

Artists:  A B C D E F G H I J K L M N O P Q R S T U V W X Y Z # 

Daughters Tabs (ver.1)

John Mayer Tabs
 Rating:
4/5 (4 votes)
Daughters lessons Tabs too difficult? Try these video lessons and learn fast
1
                Here it is the first tab off John Mayer’s new album heavier things: Daughters
Intro

0-----0------0------0
0-----0------0------3
7-----7------4------4
7-----6------5------4
x-----7------0------5
7-----x?-----5------x


Verse

0-----0------0----- 0
0-----8------0------3
7-----7------4------4
7-----9------5------4
x-----7------0------5
7-----0------5------x

Chorus
0-----0------0------0
0-----0------0------3
7-----7------4------4
7-----6------5------4
x-----7------0------5
7-----x?-----5------x

Break: I have no clue how to play yet but ill get it soon

Solo: In key of B I think
0-----0------0------0
0-----0------0------3
7-----7------4------4
7-----6------5------4
x-----7------0------5
7-----x?-----5------x

Note:the open e and b strings are key for strumming during this tune 

Thanks
            
Submit corrections

comments powered by Disqus
↑ Back to top | John Mayer Tabs for Daughters. Lyrics for acoustic guitar and electric guitar. 1 Tablatures and chords are parodies/interpretations of the original songs. You may use it for private study, scholarship, research or language learning purposes only