>
 >
City Love

City Love Guitar Tabs

John Mayer - City Love chords, tabs, tablatures, lyrics

Guitar lessons | Add/correct | Request | Top 50 tabs Artists:  A B C D E F G H I J K L M N O P Q R S T U V W X Y Z 0-9

City Love Guitar Tabs – John Mayer

CD, Sheet music, Poster

Do you like City Love? Share with your friends now
ChordsTabsTabs v2Tabs v3Ukulele
City Love 

Drop D Tuning
note:  all low E notes played with thumb except chords in part F


Part A: "I never liked this apple much"

e----------------------------------------------------------
b----------------------------------------------------------
g------4--7--4------------x--x--x-------x--x--x-------x----
d---7--5--7--5--7--4------4--4--x-------4--4--x-------4----
a---7-----------7--5------5--5--x-------5--5--x-------5----
d---------------------7---5--5--x---2/--5--5--x---2/--5----


Part B: "It always seemed to big to touch"

e----------------------------------------------------------
b----------------------------------------------------------
g------4--7--4------------x--x--x-------x--x--x-------x----
d---7--5--7--5--7--4------4--4--x-------4--4--x-------4----
a---7-----------7--5------5--5--x-------5--5--x-------5----
d---------------------7---0--0--x---2/--0--0--x---2/--0----


"I can't remember how I found" (Part A)


Part C: "My way before she came around.  I tell..."

e------------------------------------------
b------------------------------------------
g------4--7--4------------x---x---x---x----
d---7--5--7--5--7--4------4---5---7---5----
a---7-----------7--5------5---7---9---7----
d---------------------7---0---0---0---0----


Part D: "...everyone, I smile just because..."

e----0-----x----
b----0----10----
g----0----10----  (2x)
d----2-----7----
a----3-----8----
d----3-----8----


Part E: "...can't remember life before her name"

e-----------------------------------------------
b-----------------------------------------------
g------------------------7--7/9\7---7--7/9\7----
d----9---4----9---4------7--7/9\7---7--7/9\7----
a---10---5---10---5------7--7/9\7---7--7/9\7----
d---10---5---10---5---0-------------------------


"She keeps a suit case..." (Part A)
"As if I had the extra..." (Part B)
"She steals my clothes..." (Part A)
"I know, her hairs are..." (Part C)


Part F: "...the day, she called up and came to me..."

e----x-----x----x----
b----3----10---11----
g----0-----x----x----  (2x)
d----3----10---10----
a----1-----8----8----
d----1-----8----8----


Part G: "...the clothes spun we spooned..."

e----3---3---x-------------------------
b----3---3---3-------------------------
g----3---3---0----x---x---x---x---x----
d----5---2---3----7---5---7---5---7----
a----x---3---1----9---7---9---7---9----
d----5---x---1----0---0---0---0---0----


Part H: Solo

e-----------------------------------------------------------------------------------------------
b--10/12-------10----------------------------------------------------10----7--------------------
g---------9/11----11\9--7---9/11-9/11------7-9--------7-9/11-9/11-------------7-6---7/9-9\7/9\7-
d-------------------------9------------7/9-----9--7h9--------------7-----9--------9-7/9-9\7/9\7-
a-----------------------------------------------------------------------------------------------
d-----------------------------------------------------------------------------------------------

e--------------10----10---/14-10~--------10----13-10-12----10~---------------------------
b----------------------------------10-12----12----------13------13-10--\12-12--10--------
g-------7--/11----11---------------------------------------------------\12-12--10--------
d---7h9----------------------------------------------------------------------------12~-\-
a----------------------------------------------------------------------------------------
d----------------------------------------------------------------------------------------

e---5----5-----5-------------------------
b---5h7--5-----3--5--5--5----------------
g-----------7--6--4--7--6--4---6---4/6---
d------------------------------7---5/7---
a----------------------------------------
d----------------------------------------

* The (/14) and all the (9/11) except the first one are bended notes.. 


Part I: Ending

e------------------5---------x----
b---------------5-----7--5---3----
g---------4--7--6-----7--6---2----
d------7--5--7---------------0----
a------7---------------------0----
d---0------------------------0----


I never liked this apple much
It always seemed too big to touch
I can't remember how I found
My way before she came around 

I tell everyone
I smile just because
I've got a city love
I found it in Lydia
And I can't remember life before her name 

She keeps a toothbrush at my place
As if I had the extra space
She steals my clothes to wear to work
I know - her hairs are on my shirts

I tell everyone
I smile just because
I've got a city love
I found it in Lydia
And I can't remember life before 
The day
She called up and came to me
Covered in rain
And dinnertime shadowing
And as her clothes spun, we spooned
And I knew I was through
When I said "I love you" 

Friday evening, we've been drinking
2 AM, I swear I might propose
but we close the tab
split a cab
and call each other up when we get home
falling asleep to the sound
of sirens 

I've got a city love
I found it in Lydia 

To the gallery
It's the kind of thing you only see
In scented, glossy magazines 

And I can't remember life before her name 


(Lyrics taken from the official site)





Comments


Popular John Mayer tabs & chords
Badge And Gun Chords
Bigger Than My Body Intro Chords
Free Fallin 1 Chords
Queen Of California 1 Chords
Age Of Worry 2 Tabs
Age Of Worry 3 Tabs
Slow Dancing In A Burning Room 5 Tabs
Somethings Missing Tabs
Speak For Me Tabs
Bare Ballin Ukulele


Song lyrics



↑ Back to top | Tablatures and chords are parodies/interpretations of the original songs. You may use it for private study, scholarship, research or language learning purposes only
© 2014 AZChords.com Contact us | Privacy policy | DMCA | Add/correct tabs | Request tabs | Top 50 tabs