» » »

John Mayer, Cant Take That Plane Tabs (ver.2)

Artists:  A B C D E F G H I J K L M N O P Q R S T U V W X Y Z # 

Cant Take That Plane Tabs (ver.2)

John Mayer Tabs
Rating:
0/5 (0 votes)
Cant Take That Plane lessons Tabs too difficult? Try these video lessons and learn fast
                Can’t Take that Plane by John Mayer
Bonus Track off Continuum

Second Guitar
Main Riff
e|------------------------------------------------------|
B|------------------------------------------------------|
G|------------------------------------------------------|
D|------------------------------------------------------|
A|---7--7--x-------5------------------------------------|
E|-----------4-5-6--------------------------------------|

Lead Guitar intro
e|------------------------------------------------------|
B|----------8b------------------------------------------|
G|--7h9~------------------------------------------------|
D|-------------7b-7b~-5----------5----------------------|
A|-----------------------7p5—5h7---7/-------------------|
E|------------------------------------------------------|

e|------------------------------------------------------|
B|----------------------10b—10b~--10~-------------------|
G|-----7—7h9-9~----7-9----------------9-----------------|
D|-7h9------------------------------------/7--5~--------|
A|------------------------------------------------------|
E|------------------------------------------------------|

e|------------------------------------------------------|
B|------------------------------------------------------|
G|-----------------7—7h9--------------------------------|
D|---------5--7/9-----------/7-5------------------------|
A|-----5h7----------------------------------------------|
E|------------------------------------------------------|

Verse

Guitar lead in
e|------------------------------------------------------|
B|------------------------------------------------------|
G|---/6~--4-6~--------------------7h9~------------------|
D|--------------4h6--4-----------------/7--5~-----------|
A|---------------------5~-------------------------------|
E|------------------------------------------------------|

e|------------------------------------------------------|
B|------------------------------------------------------|
G|---------------9~-------9h11-9----9h11----------------|
D|--------9--/11-----------------11---------------------|
A|----/11-----------------------------------------------|
E|------------------------------------------------------|

CHORUS
Second guitars main riff throughout

Second guitar lead in to verse 2
e|------------------------------------------------------|
B|------------------------------------------------------|
G|-----7-9-9--11b-11b~----------------------------------|
D|--/9--------------------------------------------------|
A|------------------------------------------------------|
E|------------------------------------------------------|

e|------------------------------------------------------|
B|------------------------------------------------------|
G|-----11b-11--9-7------------------7-9-7-9--11b~-------|
D|-----------------9------------------------------------|
A|------------------------------------------------------|
E|------------------------------------------------------|

Guitar lead in
e|------------------------------------------------------|
B|----9---------9----9-------9--------------------------|
G|----9---------9----9-------9----9---------------------|
D|----9h11------9h11-9h11----9h11-9---------------------|
A|---------11-9----------------------11-9-7~------------|
E|------------------------------------------------------|

e|------------------------------------------------------|
B|---9----------9---9-/11--9----------------------------|
G|---9----------9---9-/11--9----------------------------|
D|---9h11-------9---11/13--11---------------------------|
A|----------/11-----------------------------------------|
E|------------------------------------------------------|

Chorus

SOLO with wah
e|------------------------------------------------------|
B|--------------------------------------------15--17----|
G|--------------------------------------16-16-----------|
D|------------------------------------------------------|
A|------------------------------------------------------|
E|------------------------------------------------------|

e|------------------------------------------------------|
B|--19b--19~--19p17----17-19b~-----------------21b~-----|
G|------------------18-------------------------20b~-----|
D|------------------------------------------------------|
A|------------------------------------------------------|
E|------------------------------------------------------|

e|------------------------------------------------------|
B|------20b-20~--20p17----17----20b-20b~---------15-----|
G|---------------------19----19------------16-16----16--|
D|------------------------------------------------------|
A|------------------------------------------------------|
E|------------------------------------------------------|

Repeat once (this isn’t exact. Its my best guess)
e|------------------------------------------------------|
B|--15h17-----------------------------------------------|
G|--------16-14p12-----15p12----14b-12~--------------o--|
D|------------------14-------14----------------------o--|
A|------------------------------------------------------|
E|------------------------------------------------------|

e|------------------------------------------------------|
B|----20b-20-20p17----17----17~----------12-14b-12-14b--|
G|-----------------19----19-----------------------------|
D|------------------------------------------------------|
A|------------------------------------------------------|
E|------------------------------------------------------|

e|------------------------------------------------------|
B|-14p12------------------------------------------------|
G|-------14-14b~-11p9----9-9----------------------------|
D|--------------------11--------------------------------|
A|----------------------------11-11-9-9-9p7-------------|
E|-----------------------------------------9--12~-------|

Not entirely sure about the end solo, but it’s the closest I could get without a wah 
to check with :/
            

comments powered by Disqus
↑ Back to top | John Mayer Tabs for Cant Take That Plane. Lyrics for acoustic guitar and electric guitar. Tablatures and chords are parodies/interpretations of the original songs. You may use it for private study, scholarship, research or language learning purposes only