>
 >
Born And Raised

Born And Raised Guitar Tabs

John Mayer - Born And Raised chords, tabs, tablatures, lyrics

Guitar lessons | Add/correct | Request | Top 50 tabs Artists:  A B C D E F G H I J K L M N O P Q R S T U V W X Y Z 0-9

Born And Raised Guitar Tabs – John Mayer

CD, Sheet music, Poster

Do you like Born And Raised? Share with your friends now
ChordsChords v2Chords v3Chords v4TabsUkulele
I think the tab is so accurate! hope you enjoy! Please feel free to comment, rate...

Intro & Verse

    G       Bm7        F        C
e-----------2---------------------------------|
b---3-------3/5-------1--------1--------------|
g---4-------x---------2--------0--------------|
d---5-------4---------3--------2--------------|
a---x-------2---------x--------3--------------|
e---3-----------------1-----------------------|

Verse 1
Now and then
I pace my place
I canít retrace how I got here

I cheat and lie
to check my fates
itís slightly harder than last year


Verse 2
I still have dreams
and Iím the same
they donít fly as high as they used to

I saw my friend
heís in my head
and he said, ďyou donít remember me do you?Ē

Verse 3
I still got time
I still got faith
I call on both of my brothers
I got a Mom
I got a Dad
but they do not have each other

Chorus:
The first time he plays:

    Em       G        C        
e---0-----------------3---------------------|
b---0-------3---------1---------------------|
g---0-------4---------0---------------------|
d---2-------5---------2---------------------|
a---2-------x---------3---------------------|
e---0-------3-------------------------------|

The next time:
    Em7     G         C        
e---0-------3---------3---------------------|
b---3-------3---------1---------------------|
g---0-------0---------0---------------------|
d---2-------0---------2---------------------|
a---2-------x---------3---------------------|
e---0-------3-------------------------------|

and all at once
it gets hard to take
it gets hard to fake what I wonít be
cause one of these days
Iíll be born and raised
and itís such a waste to grow up lonely


Bridge:
While he plays the harmonica:

    G        C       Csus2     Am7(you can also play Am)    
e---3--------------------------------------|
b---0/1/0----1---------1--------1----------|
g---0--------0---------0--------0----------| x2 (C Csus2 Am7)
d---0--------2---------0--------2----------|
a---x--------3---------2-------------------|
e---3--------------------------------------|

        C       Csus2     Am7       D/F#
e-----------------------------------2----|
b-------1---------1--------1--------3----|
g-------0---------0--------0--------3----| 
d-------2---------0--------2--------0----|
a-------3---------2-----------------x----|
e-----------------------------------2----|





Comments


Popular John Mayer tabs & chords
Homelife Bass Tabs
Edge Of Desire 1 Chords
Slowdancing In A Burning Room Chords
Who Says 1 Chords
Break In The Clouds Tabs
Covered In Rain 4 Tabs
Message In A Bottle Intro Tabs
No Woman No Cry Tabs
Route 66 Tabs
The Heart Of Life 2 Tabs


Song lyrics



↑ Back to top | Tablatures and chords are parodies/interpretations of the original songs. You may use it for private study, scholarship, research or language learning purposes only
© 2014 AZChords.com Contact us | Privacy policy | DMCA | Add/correct tabs | Request tabs | Top 50 tabs