» » »

Belief Tabs (ver.4)

Artists:  A B C D E F G H I J K L M N O P Q R S T U V W X Y Z # 

Belief Tabs (ver.4)

John Mayer
Rating:
4/5 (13 votes)

Hard to play? Try these video lessons and learn fast.
                (Intro)
Intro & Verse
e|-------------------------------------------------------------------------|
B|-------------------------------------------------------------------------|
G|----------10-10--9------------7-7--5-----------3-3-2----------10-10-12---|
D|-------------------------------------------------------------------------|
A|--------12-12--10------------8-8--7------3-3--5-5-3---------12-12--13----|
E|-10-10----------------3--3----------------------------10-10--------------|

e|----------------------------------------------------------|
B|----------11-11-10-------10-10-8--------8-8-6------6-6-5--|
G|----------------------------------------------------------|
D|--------12-12-10--------10-10-8--------8-8-7------7-7-5---|
A|--10-10--------------8-8-----------8-8--------5-5---------|
E|----------------------------------------------------------|

you have to slide them...listen to the song to know when....
im 99% sure this is all correct
            
Hard to play? Try these video lessons and learn fast. | Correct




comments powered by Disqus
↑ Back to top | Tablatures and chords are parodies/interpretations of the original songs. You may use it for private study, scholarship, research or language learning purposes only