>
 >
Belief 2

Belief 2 Guitar Tabs

John Mayer - Belief 2 chords, tabs, tablatures, lyrics

Guitar lessons | Add/correct | Request | Top 50 tabs Artists:  A B C D E F G H I J K L M N O P Q R S T U V W X Y Z 0-9

Belief 2 Guitar Tabs – John Mayer

CD, Sheet music, Poster

Do you like Belief 2? Share with your friends now
ChordsChords v2Chords v3TabsTabs v2Tabs v3Tabs v4Tabs v5Tabs v6Tabs v7Ukulele

Belief Tab
By John Mayer


Intro and Verse
e|---------------------------------------------------------------|
B|---------------------------------------------------------------|
G|------------------10------10----9---9--------------------------|
D|---------------------------------------------------------------|
A|-------------/12------12---------------------------------------|
E|----10--10-----------------------------------------------------|

e|---------------------------------------------------------------|
B|---------------------------------------------------------------|
G|---------------7-----7-----5---5-------------------------------|
D|---------------------------------------------------------------|
A|-----------/8-----8--------------------------------------------|
E|----3--3-------------------------------------------------------|

e|---------------------------------------------------------------|
B|---------------------------------------------------------------|
G|---------------3-----3-----2---2-------------------------------|
D|---------------------------------------------------------------|
A|----3--3---/5-----5--------------------------------------------|
E|---------------------------------------------------------------|

e|---------------------------------------------------------------|
B|---------------------------------------------------------------|
G|----------------10------10---12---12---------------------------|
D|---------------------------------------------------------------|
A|------------/12-----12-----------------------------------------|
E|---/10--10-----------------------------------------------------|

Chorus

e|--------------11-----11---10---10------------------------------|
B|---------------------------------------------------------------|
G|----------/12-----12-------------------------------------------|
D|---------------------------------------------------------------|
A|---------------------------------------------------------------|
E|---3--3--------------------------------------------------------|

e|--------------10-----10----8---8-------------------------------|
B|---------------------------------------------------------------|
G|----------/10-----10-------------------------------------------|
D|---------------------------------------------------------------|
A|---3--3--------------------------------------------------------|
E|---------------------------------------------------------------|

e|--------------8-----8----6---6---------------------------------|
B|---------------------------------------------------------------|
G|----------/8-----8---------------------------------------------|
D|---------------------------------------------------------------|
A|---------------------------------------------------------------|
E|---1--1--------------------------------------------------------|

e|---------------------------------------------------------------|
B|----------------6-----6----5---3-------------------------------|
G|---------------------------------------------------------------|
D|------------/7-----7-------5---3-------------------------------|
A|---------------------------------------------------------------|
E|---/6--6-------------------------------------------------------|


Solo
e|---------------------------------------------------------------|
B|----13/15~-----------------------------------------------------|
G|--------------14\12--14\12-\10--------------------------------|
D|---------------------------------------------------------------|
A|---------------------------------------------------------------|
E|---------------------------------------------------------------|

e|---------------------------------------------------------------|
B|---10--10--13--10----------------------------------------------|
G|--------------------12b13r12---10------------------------------|
D|-----------------------------------12--10----------------------|
A|-------------------------------------------12------------------|
E|---------------------------------------------------------------|

e|---------------------------------------------------------------|
B|---------------------------------------------------------------|
G|-----------------------------------------------10--------------|
D|--------------------------------------10---12------12---(10)---|
A|---12\10---12\10---8---10--8---10/12---------------------------|
E|---------------------------------------------------------------|

e|---------------------------------------------------------------|
B|---------------------------------------------------------------|
G|---10-----10-----10--------------------------------------------|
D|---10h12-10h12-10h12---10------------------------------------|
A|------------------------------12r10\8--------------------------|
E|---------------------------------------10----------------------|

e|---------------------------------------------------------------|
B|-------------------------------13-----13----13---------------|
G|---------------------------------12h14-12h1412h14------------|
D|---8-----8-----8-----------------------------------------------|
A|---8h10-8h10-8h10(8)----------------------------------------|
E|---------------------------------------------------------------|

e|---------------------------------------------------------------|
B|---------------------------------------------------------------|
G|-----------10-12--12b-12--10--12--10--12----------------------|
D|---10--12------------------------------------------------------|
A|---------------------------------------------------------------|
E|---------------------------------------------------------------|

e|-----------10---13b15---10--------10---10~\--------------------|
B|---10--13--------------------13--------------------------------|
G|---------------------------------------------------------------|
D|---------------------------------------------------------------|
A|---------------------------------------------------------------|
E|---------------------------------------------------------------|


He does a lot more jamming during the bridges using sixths. 

Lyrics
Is there anyone who
Ever remembers changing there mind from
The paint on a sign?
Is there anyone who really recalls
Ever breaking rank at all
For something someone yelled real loud one time

Everyone believes
In how they think it ought to be
Everyone believes
And they're not going easily

Belief is a beautiful armor
But makes for the heaviest sword
Like punching under water
You never can hit who you're trying for

Some need the exhibition
And some have to know they tried
It's the chemical weapon
For the war that's raging on inside

Everyone believes
Everyone believes
And no ones going quietly

We're never gonna win the world
We're never gonna stop the war
We're never gonna beat this
If belief is what we're fighting for

What puts a hundred thousand children in the sand
Belief can
Belief can
What puts the folded flag inside his mother's hand
Belief can
Belief can



| /  slide up
| \  slide down
| h  hammer-on
| p  pull-off
| ~  vibrato
| +  harmonic
| x  Mute note





Comments


Popular John Mayer tabs & chords
Assassin Chords
Why Georgia 2 Chords
Clarity 4 Tabs
Free Fallin Tabs
Free Fallin 2 Tabs
In Repair 3 Tabs
Say 4 Tabs
Tori Tabs
Vultures Tabs
Split Screen Sadness 2 Ukulele


Song lyrics



↑ Back to top | Tablatures and chords are parodies/interpretations of the original songs. You may use it for private study, scholarship, research or language learning purposes only
© 2014 AZChords.com Contact us | Privacy policy | DMCA | Add/correct tabs | Request tabs | Top 50 tabs