>
 >
Back To You 2

Back To You 2 Guitar Tabs

John Mayer - Back To You 2 chords, tabs, tablatures, lyrics

Guitar lessons | Add/correct | Request | Top 50 tabs Artists:  A B C D E F G H I J K L M N O P Q R S T U V W X Y Z 0-9

Back To You 2 Guitar Tabs – John Mayer

CD, Sheet music, Poster

Do you like Back To You 2? Share with your friends now
Bass TabsChordsChords v2Chords v3TabsTabs v2Ukulele
This is just the solo and a riff for the John Mayer song Back To You.

~ = let ring
h = hammer on note
p = pull off note
^ = bend up note
r = release bent note

Add some reverb and it sounds pretty cool.
e----------------------------------------|
B---12/14~---12/14\12---14p12--12--------|
G---------------------------------14~----|
D----------------------------------------|
A----------------------------------------|
E----------------------------------------|


e-----------------------------------------------------------------|
B-----------12/14----14\9~----14\9--------14\7-------14^15r14~----|
G---14--11---------------------------11---------9-----------------|
D-----------------------------------------------------------------|
A-----------------------------------------------------------------|
E-----------------------------------------------------------------|

Played over these chords...
e---------------------------------|
B---10---9---------10---9---------|
G----9---9----------9---9---------|
D----7---7---(x2)---7---7---(x2)--|
A----0---0----------9---9---------|
E---------------------------------|

Following riff...

e-------------------------------------|
B---7h9-----------7h9---------12------|
G--------9--11----------9--11---------|    ....Fade out
D-------------------------------------|
A-------------------------------------|
E-------------------------------------|

That's it, the rest of the song is tabbed out pretty well on the site so check that out. 
-cheers.





Comments


Popular John Mayer tabs & chords
Assassin 2 Chords
Born And Raised 1 Chords
Im Gonna Find Another You 2 Chords
A Face To Call Home Tabs
I Dont Need No Doctor Tabs
Little Red Corvette 1 Tabs
Man On The Side 2 Tabs
Shadow Days 1 Tabs
Stitched Up 1 Tabs
War Of My Life Ukulele


Song lyrics



↑ Back to top | Tablatures and chords are parodies/interpretations of the original songs. You may use it for private study, scholarship, research or language learning purposes only
© 2014 AZChords.com Contact us | Privacy policy | DMCA | Add/correct tabs | Request tabs | Top 50 tabs