>
 >
Assassin

Assassin Guitar Tabs

John Mayer - Assassin chords, tabs, tablatures, lyrics

Guitar lessons | Add/correct | Request | Top 50 tabs Artists:  A B C D E F G H I J K L M N O P Q R S T U V W X Y Z 0-9

Assassin Guitar Tabs – John Mayer

CD, Sheet music, Poster

Do you like Assassin? Share with your friends now
Bass TabsChordsChords v2Chords v3Chords v4Chords v5TabsTabs v2Tabs v3Tabs v4Tabs v5UkuleleUkulele v2
I hope you find this tab useful. I dont think no one has acctually wtritten this tab 
(or i think correctly ;)). So this is what i figured out by ear, and to me, as a drummer 
and bassist, i think this tab is right. Please rate :)!
RJ_Rock :D

Tuning: Drop D (if you dont tune down it sounds terrible !!)

Intro

E|-----------|
G|-----------|    This is acctually the bass note, but sounds good on guitar
D|-----------|    too !! :)
A|-----------|
D|------/9---|

Verse

What i do, is i take these chords, and i improvise around them. So for example i add 
notes, more linking notes :)

'I work in the dead of night...'.. bit :)

E|------------------------------------------|
B|--------------------------------5-5--5----|
G|--4-4--4----2-2--2----7-7--7----6-6--6----|
D|--5-5--5----0-0--0----9-9--9----7-7--7----|
A|--x-x--x----x-x--x----x-x--x----0-0--0----|
D|--2-2--2----5-5--5----9-9--9----x-x--x----|

                  ^
These chords are just used in the verse, improvise around them, i've made them sound 
:L

'Oooohh.... Ooohhh... Ooohh... You get in, you get done and then you get gone...'

E|-------x-------x-------x----------x-------x----------|
B|-------x-------x-------x----------x-------x----------|
G|--4-4--x--7-7--x--6-6--x-----2-2--x--7-7--x--6-6-(7)-|  Repeat again
D|--5-5--x--9-9--x--7-7--x-----0-0--x--9-9--x--7-7-----|
A|--x-x--x--x-x--x--x-x--x-----x-x--x--x-x--x--x-x-----|
D|--2-2--x--9-9--x--7-7--x-----5-5--x--9-9--x--7-7-----|

         E|---------------|
         B|---------------|
 End On  G|--2-2--2----6--|
         D|--0-0--0----7--|
         A|--x-x--x----x--|
         D|--5-5--5--5/7--|

This is when the drums come in with the rhythm... I like to fingerpick this part, but 
can strum the notes too. :)

E|----------------|
B|---------5-5-5--|
G|-7-7-7---6-6-6--|   Repeat x6
D|-9-9-9---7-7-7--|
A|-x-x-x---0-0-0--|
D|-9-9-9----------|

Then play the verse again....
The Chorus follows:

Chorus

These chords are strumed

E|---------xx---------------xx-------|
B|---------xx---------------xx-------|
G|-7-7-7-7-xx--7-7--2-2-2-2-xx--4-4--|  Repeat x4
D|-9-9-9-9-xx--x-x--0-0-0-0-xx--2-2--|
A|-x-x-x-x-xx--9-9--x-x-x-x-xx--2-2--|
D|-9-9-9-9-xx--0-0--5-5-5-5-xx--2-2--|

Bridge

'Suddenly im in...over my head and... i can hardly breathe...'

E|-------------------------------------------------|
B|-------------------------------------------------|
G|-2-2-2-2-2--2-2-2-2-2--7-7-7-7-7--6-6-(7)-6-6-6--|   Repeat x4
D|-0-0-0-0-0--0-0-0-0-0--9-9-9-9-9--7-7-----7-7-7--|
A|-0-0-0-0-0--x-x-x-x-x--x-x-x-x-x--x-x-----x-x-x--|
D|-0-0-0-0-0--5-5-5-5-5--9-9-9-9-9--7-7-----7-7-7--|

Solo

This begins after John Mayer sings 'I'm gone...'

E|----------12^13-12-10-------12^13-12-10-12--12^13-12-10----------10------|
B|-12-12-10-------------12\0------------------------------12----10----12\0-|
G|-----------------------------------------------------------11------------|
D|-------------------------------------------------------------------------|
A|-------------------------------------------------------------------------|
D|-------------------------------------------------------------------------|

E|-15^16-12-10-12-10h12-10----------10-------------------------------------|
B|-------------------------12-10-12--------10-12-10------------------------|
G|--------------------------------------11----------11-9-9\7---7-----------|
D|-----------------------------------------------------------9---9---------|
A|-------------------------------------------------------------------------|
D|-------------------------------------------------------------------------|

E|-13^14-10h12-12-10----------15^17-12-14-10h12h10----------10-------------|
B|-------------------12-10-------------------------12-10-12----12~~~~~\0---|
G|-------------------------------------------------------------------------|
D|-------------------------------------------------------------------------|
A|-------------------------------------------------------------------------|
D|-------------------------------------------------------------------------|

Chorus x4

Outro

E|--------------------------|
B|--------------------------|
G|-7-7-7---6-6-(7)-6--------|   Fade till end
D|-9-9-9---7-7-----7--------|
A|-x-x-x---x-x-----x--------|
D|-9-9-9---7-7-----7--------|

Thank you for choosing this tab :L
Hope you find it useful !! (Y)

RJ_Rock





Comments


Popular John Mayer tabs & chords
All We Ever Do Is Say Goodbye 2 Chords
Love Song For No One 1 Chords
Route 66 Chords
Walt Graces Submarine Test January 1967 Chords
Belief 1 Tabs
Cissy Strut 2 Tabs
Clarity 1 Tabs
Gravity Live Intro Tabs
Little Red Corvette 1 Tabs
Waiting On The World To Change 8 Tabs


Song lyrics



↑ Back to top | Tablatures and chords are parodies/interpretations of the original songs. You may use it for private study, scholarship, research or language learning purposes only
© 2014 AZChords.com Contact us | Privacy policy | DMCA | Add/correct tabs | Request tabs | Top 50 tabs