» » »

John Holt, I Want A Love I Can Feel Bass tabs (ver.1)

Artists:  A B C D E F G H I J K L M N O P Q R S T U V W X Y Z # 

I Want A Love I Can Feel Bass tabs (ver.1)

John Holt Tabs
Rating:
5/5 (1 vote)
Hard to play? Try these video lessons and learn fast.
                 Title - I Want a Love I Can Feel
 Artist - John Holt


   intro
G|---------------------------------------------|
D|--5555---57--7777---57--5555---57-7777---57--|
A|-------3----------5----------3---------5-----|
E|---------------------------------------------|


   main riff, repeat thro'out
G|---------------------------------------------|
D|--5555---57--7777---57--5-5---57--7777---57--|
A|-------3----------5---------3----------5-----|
E|---------------------------------------------|
            

comments powered by Disqus
↑ Back to top | John Holt Bass for I Want A Love I Can Feel. Lyrics for acoustic guitar and electric guitar. Tablatures and chords are parodies/interpretations of the original songs. You may use it for private study, scholarship, research or language learning purposes only