» » »

John Holt, If I Were A Carpenter Bass tabs (ver.1)

Artists:  A B C D E F G H I J K L M N O P Q R S T U V W X Y Z # 

If I Were A Carpenter Bass tabs (ver.1)

John Holt Tabs
Rating:
5/5 (1 vote)
If I Were A Carpenter lessons Tabs too difficult? Try these video lessons and learn fast
                 Title - If I Were a Carpenter
 Artist - John Holt
 Album - Born Free


   intro/verse
G|----------------------------------------------|
D|--444---4--4------------666---6----666---6-6--|
A|------4------444---4--4-----6----6-----6------|
E|-----------------4----------------------------|


G|--------------------------------------------|
D|--444---4--4-----------666---6---666---6-6--|
A|------4-----444---4-4------6---6-----6------|
E|----------------4---------------------------|


   chorus (send my love...)
G|----------------------------------------------|
D|--444-4-4--666-6-6--444-4-4--666-6-6---6-6-6--|
A|--------------------------------------6-------|
E|----------------------------------------------|
            

comments powered by Disqus
↑ Back to top | John Holt Bass for If I Were A Carpenter. Lyrics for acoustic guitar and electric guitar. Tablatures and chords are parodies/interpretations of the original songs. You may use it for private study, scholarship, research or language learning purposes only