>
 >
Help Me Make It Through The Night

Help Me Make It Through The Night Bass Tabs

John Holt - Help Me Make It Through The Night chords, tabs, tablatures, lyrics

Guitar lessons | Add/correct | Request | Top 50 tabs Artists:  A B C D E F G H I J K L M N O P Q R S T U V W X Y Z 0-9

Help Me Make It Through The Night Bass Tabs – John Holt

CD, Sheet music, Poster

Do you like Help Me Make It Through The Night? Share with your friends now
Bass Tabs
 Title - Help Me Make it Through the Night
 Artist - John Holt
 Album - Archive Series


   verse x2
G|--------------------------------------|
D|--2-2-------2---2----2-2-------2---2--|
A|------4-2-4---4----------4-2-4---4----|
E|--------------------------------------|


G|--2-2-------2---2----2-2-------2---2--|
D|------4-2-4---4----------4-2-4---4----|
A|--------------------------------------|
E|--------------------------------------|


G|---------------------4-4-------4---4--|
D|--4-4-------4---4--------6-4-6---6----|
A|------6-4-6---6-----------------------|
E|--------------------------------------|


G|--4-4-------4---4-------------------------|
D|------6-4-6---6------2-2-------2---2---2--|
A|-------------------------4-2-4---4--------|
E|------------------------------------------|


   chorus x1
G|--2-2-------2---2----2-2-------2---2--|
D|------4-2-4---4----------4-2-4---4----|
A|--------------------------------------|
E|--------------------------------------|


G|--------------------------------------|
D|--2-2-------2---2----2-2-------2---2--|
A|------4-2-4---4----------4-2-4---4----|
E|--------------------------------------|


G|--------------------------------------|
D|--4-4-------4---4----4-4-------4---4--|
A|------6-4-6---6----------6-4-6---6----|
E|--------------------------------------|


G|--4-4-------4---4-4--4--|
D|------6-4-6---6---------|
A|------------------------|
E|------------------------|

   repeat verse x2 and chorus x1


   last verse
G|--------------------------------------|
D|--3-3-------3---3----3-3-------3---3--|
A|------5-3-5---5----------5-3-5---5----|
E|--------------------------------------|


G|--3-3-------3---3----3-3-------3---3--|
D|------5-3-5---5----------5-3-5---5----|
A|--------------------------------------|
E|--------------------------------------|


G|---------------------5-5-------5---5--|
D|--5-5-------5---5--------7-5-7---7----|
A|------7-5-7---7-----------------------|
E|--------------------------------------|


G|--5-5-------5---5---------------------|
D|------7-5-7---7------3-3-------3---3--|
A|-------------------------5-3-5---5----|
E|--------------------------------------|


   outro to fade
G|---------------------3-3-------5-3-5--|
D|--3-3-------3---3--------5-3-5--------|
A|------5-3-5---5-----------------------|
E|--------------------------------------|

 John Holt albums and track listings at;





Comments


Popular John Holt tabs & chords
Ghetto Girl Bass Tabs
I Want A Love I Can Feel Bass Tabs
If I Were A Carpenter Bass Tabs
Ali Baba Chords
Police In Helicopter Chords
Fat She Fat Tabs
Tribal War Tabs
Ali Baba Ukulele


Song lyrics



↑ Back to top | Tablatures and chords are parodies/interpretations of the original songs. You may use it for private study, scholarship, research or language learning purposes only
© 2014 AZChords.com Contact us | Privacy policy | DMCA | Add/correct tabs | Request tabs | Top 50 tabs