» » »

John Frusciante, Carvel Tabs (ver.2)

Artists:  A B C D E F G H I J K L M N O P Q R S T U V W X Y Z # 

Carvel Tabs (ver.2)

John Frusciante Tabs
 Rating:
4/5 (4 votes)
Carvel lessons Tabs too difficult? Try these video lessons and learn fast
                "Carvel"
John Frusciante

Intro
"Ahhh ah ahhh ah ah ahhh"
e|---7-7-7-7---2-2---3-3-3-3-3-3-3---|
B|---7-7-7-7---2-2---3-3-3-3-3-3-3---|
G|---7-7-7-7---2-2---4-4-4-4-4-4-4---| x4
D|---9-9-9-9---4-4---5-5-5-5-5-5-5---|
A|---9-9-9-9---4-4---5-5-5-5-5-5-5---|
E|---7-7-7-7---2-2---3-3-3-3-3-3-3---|

Verse
"When I try to Force it Out"
e|---7-7-7-7---2-2---3-3-3-3-3-3-3---|
B|---7-7-7-7---2-2---3-3-3-3-3-3-3---|
G|---7-7-7-7---2-2---4-4-4-4-4-4-4---|
D|---9-9-9-9---4-4---5-5-5-5-5-5-5---|
A|---9-9-9-9---4-4---5-5-5-5-5-5-5---|
E|---7-7-7-7---2-2---3-3-3-3-3-3-3---|

"Never looking in only out"
e|---7-7-7-7---2-2---3-3-3-3-3-3-3---5-5---|
B|---7-7-7-7---2-2---3-3-3-3-3-3-3---5-5---|
G|---7-7-7-7---2-2---4-4-4-4-4-4-4---6-6---|
D|---9-9-9-9---4-4---5-5-5-5-5-5-5---7-7---|
A|---9-9-9-9---4-4---5-5-5-5-5-5-5---7-7---|
E|---7-7-7-7---2-2---3-3-3-3-3-3-3---5-5---|

"Now is the time for Millions to lose..."
e|---5-5-5-5---5-5---2-2---3-3---|
B|---7-7-7-7---5-5---2-2---3-3---|
G|---7-7-7-7---6-6---2-2---4-4---|x2
D|---7-7-7-7---7-7---4-4---5-5---|
A|---5-5-5-5---7-7---4-4---5-5---|
E|-------------5-5---2-2---3-3---|

"Running me out of Town"
e|---7-7-7-7---2-2---3-3-3-3-3-3-3---|
B|---7-7-7-7---2-2---3-3-3-3-3-3-3---|
G|---7-7-7-7---2-2---4-4-4-4-4-4-4---|
D|---9-9-9-9---4-4---5-5-5-5-5-5-5---|
A|---9-9-9-9---4-4---5-5-5-5-5-5-5---|
E|---7-7-7-7---2-2---3-3-3-3-3-3-3---|

"Wishing the best around"
e|---7-7-7-7---2-2---3-3-3-3-3-3-3---5-5---|
B|---7-7-7-7---2-2---3-3-3-3-3-3-3---5-5---|
G|---7-7-7-7---2-2---4-4-4-4-4-4-4---6-6---|
D|---9-9-9-9---4-4---5-5-5-5-5-5-5---7-7---|
A|---9-9-9-9---4-4---5-5-5-5-5-5-5---7-7---|
E|---7-7-7-7---2-2---3-3-3-3-3-3-3---5-5---|

"Would only get off my back..."
e|---5-5-5-5---5-5---2-2---3-3---|
B|---7-7-7-7---5-5---2-2---3-3---|
G|---7-7-7-7---6-6---2-2---4-4---|x2
D|---7-7-7-7---7-7---4-4---5-5---|
A|---5-5-5-5---7-7---4-4---5-5---|
E|-------------5-5---2-2---3-3---|

“Sending a dummy to my god...”
e|---5-5--3-3--5-5--3-3--5-5--3-3--5-5--2-2-2-2--3-3-3-3---|
B|---5-5--3-3--5-5--3-3--5-5--3-3--5-5--2-2-2-2--3-3-3-3---|
G|---6-6--4-4--6-6--4-4--6-6--4-4--6-6--2-2-2-2--4-4-4-4---|
D|---7-7--5-5--7-7--5-5--7-7--5-5--7-7--4-4-4-4--5-5-5-5---|
A|---7-7--5-5--7-7--5-5--7-7--5-5--7-7--4-4-4-4--5-5-5-5---|
E|---5-5--3-3--5-5--3-3--5-5--3-3--5-5--2-2-2-2--3-3-3-3---|

"Ahhh ah ahhh ah ah ahhh"
e|---7-7-7-7---2-2---3-3-3-3-3-3-3---|
B|---7-7-7-7---2-2---3-3-3-3-3-3-3---|
G|---7-7-7-7---2-2---4-4-4-4-4-4-4---| x4
D|---9-9-9-9---4-4---5-5-5-5-5-5-5---|
A|---9-9-9-9---4-4---5-5-5-5-5-5-5---|
E|---7-7-7-7---2-2---3-3-3-3-3-3-3---|

“Driving to eat a carvel cake...”
e|---5-5-5-5---5-5---2-2---3-3---|   |--2--| Strum until
B|---7-7-7-7---5-5---2-2---3-3---|   |--2--| next verse
G|---7-7-7-7---6-6---2-2---4-4---|x2 |--2--|
D|---7-7-7-7---7-7---4-4---5-5---|   |--4--|
A|---5-5-5-5---7-7---4-4---5-5---|   |--4--|
E|-------------5-5---2-2---3-3---|   |--2--|


Verse 2 Intro
e|---7-7-7---5-5-5---5-5-5---3-3-3---|
B|---7-7-7---7-7-7---5-5-5---3-3-3---|
G|---7-7-7---7-7-7---6-6-6---4-4-4---|x4
D|---9-9-9---7-7-7---7-7-7---5-5-5---|
A|---9-9-9---5-5-5---7-7-7---5-5-5---|
E|---7-7-7-----------5-5-5---3-3-3---|

Solo 1(Played Over Verse 2 Intro)
e|---------------------------------------|
B|---------------------------10-12-------|
G|--------9-11-9----7-9-7----------------|
D|---9-12--------12-------12-------------|
A|---------------------------------------|
E|---------------------------------------|

e|---------------------------------------|
B|-----------------------------0---------|
G|--------9-11-9----7-9-7----6-7---------|
D|---9-12--------12-------12-7-----------|
A|---------------------------------------|
E|---------------------------------------|

Verse 2 “Have you gone, Have you gone away already”
e|---7-7-7---5-5-5---5-5-5---3-3-3---|
B|---7-7-7---7-7-7---5-5-5---3-3-3---|
G|---7-7-7---7-7-7---6-6-6---4-4-4---|
D|---9-9-9---7-7-7---7-7-7---5-5-5---|
A|---9-9-9---5-5-5---7-7-7---5-5-5---|
E|---7-7-7-----------5-5-5---3-3-3---|

Solo 2
e|---------------------------------------|
B|---------------------------10-12-------|
G|--------9-11-9----7-9-7----------------|
D|---9-12--------12-------12-------------|
A|---------------------------------------|
E|---------------------------------------|

e|---------------------------------------|
B|---------------------------------------|
G|--------9-11-9----7-9-7----6b-4--------|
D|---9-12--------12-------12-------------|
A|---------------------------------------|
E|---------------------------------------|

Verse 2 “Up and Down, Mmm that’s how energy stays alive”
e|---7-7-7---5-5-5---5-5-5---3-3-3---|
B|---7-7-7---7-7-7---5-5-5---3-3-3---|
G|---7-7-7---7-7-7---6-6-6---4-4-4---|
D|---9-9-9---7-7-7---7-7-7---5-5-5---|
A|---9-9-9---5-5-5---7-7-7---5-5-5---|
E|---7-7-7-----------5-5-5---3-3-3---|

Outro
e|---5-5--5-5--7-7-7--3-3-3---| |--5-5—-5-5—-5~--|
B|---7-7--5-5--7-7-7--3-3-3---| |--7-7—-5-5—-7~--|
G|---7-7--6-6--7-7-7--4-4-4---| |--7-7-—6-6—-7~--|
D|---7-7--7-7--9-9-9--5-5-5---| |--7-7-—7-7—-7~--|
A|---5-5--7-7--9-9-9--5-5-5---| |--5-5--7-7—-5~--|
E|--------5-5--7-7-7--3-3-3---| |-------5-5------|


Thats it. John Frusicante is an awesome guitarist but heres a pretty basic song to play.
            
Submit corrections

comments powered by Disqus
↑ Back to top | John Frusciante Tabs for Carvel. Lyrics for acoustic guitar and electric guitar. Tablatures and chords are parodies/interpretations of the original songs. You may use it for private study, scholarship, research or language learning purposes only