>
 >
Take Me Home Country Roads

Take Me Home Country Roads Guitar Tabs

John Denver - Take Me Home Country Roads chords, tabs, tablatures, lyrics

Guitar lessons | Add/correct | Request | Top 50 tabs Artists:  A B C D E F G H I J K L M N O P Q R S T U V W X Y Z 0-9

Take Me Home Country Roads Guitar Tabs – John Denver

CD, Sheet music, Poster

Do you like Take Me Home Country Roads? Share with your friends now
Bass TabsBass Tabs v2TabsTabs v2Tabs v3Ukulele
This is my first tab. I hope its good.
Good Luck


intro
e|---------------------------|
b|-------5----------5--7-----|
g|---6h7--------6h7------6---|
d|-------------------------7-|
a|---------------------------|
e|---------------------------|

Almost Heaven,    West Virginia
e|----------------------------------------|
b|--------5--7--------------5--7/9--------|
g|-----6----------------------------------|
d|----------------------------------------|
a|----------------------------------------|
e|----------------------------------------|

Blue ridge mountains,   Shenandoah River
e|------------7--------------------------7-5-7-5-7-5-9-----------|
b|---------------9--7--5-----------------------------------------|
g|------------------------7--6---------------------------7-7-6---|
d|------------------------------7------------------------------7-|
a|---------------------------------------------------------------|
e|---------------------------------------------------------------|


And then its the same thing for the rest of the verse just use the different words.  The 
for verse 2 you can use it sounds great.

For the Chorus I just say use the chords.

CHORUS:

       A               E
Country Roads, Take me home,
       F#m         D
To the place, I belong,
         A                E
West Virginia, Mountain Momma,
        F#m             D
Take me home, Country Roads,

BRIDGE:
     A     E               F#m
I hear her voice, In the mornin' hour she calls me
      D      A              E
The radio reminds me of my home far away,
 F#m              E             D
Drivin' down the road I get a feelin'
        A                   E
That I should've been home yesterday,
   G
Yesterday

Well there you go its not perfectbut it works fine.





Comments


Popular John Denver tabs & chords
Around And Around Chords
Cool An' Green An' Shady Chords
Everyday Chords
Fly Away 2 Chords
Ancient Rhymes Ukulele
Around And Around Ukulele
Berkeley Woman Ukulele
Darcy Farrow Ukulele
Gospel Changes Ukulele
Windsong Ukulele


Song lyrics



↑ Back to top | Tablatures and chords are parodies/interpretations of the original songs. You may use it for private study, scholarship, research or language learning purposes only
© 2014 AZChords.com Contact us | Privacy policy | DMCA | Add/correct tabs | Request tabs | Top 50 tabs