» » »

John Coltrane, Naima Tabs (ver.1)

Artists:  A B C D E F G H I J K L M N O P Q R S T U V W X Y Z # 

Naima Tabs (ver.1)

John Coltrane Tabs
 Rating:
4.6/5 (9 votes)
Naima lessons Tabs too difficult? Try these video lessons and learn fast
                #------------------------------------------------------------------------------##

Here's a chord-melody arragement of a classic Coltrane tune.
If you find any mistakes, please post or email.

Naima by John Coltrane

(ballad)

   Bbm9            Ebm9    B13b9  A13b9              Abmaj7

E--8----6----11----------------------------------------------|
B--6---------------6-------9------7------4-----7-----4-------|
G--6---------------6-------8------6------------------5-------|
D--6---------------4-------7------5------------------5-------|
A------------------6-----------------------------------------|
E--6--------------(6)------8------6------------------4-------|

repeat, then

   Bmaj7/Bb        Bb13           Bmaj7/Bb       Bb13

E--6----6----6--------------------6----6----6----------------|
B--7---------------8----6---------7--------------8----6------|
G--8---------------7---------8----8--------------7---------8-|
D--8---------------6--------------8--------------6-----------|
A------------------------------------------------------------|
E--6---------------6--------------6--------------6-----------|
  Bb pedal...................................................


   E13 (#11)       Bmaj7          Fm9            Gb13

E--9----6----9-----6---------6-----------------------------|
B--7---------------7--------------8---------8----4---------|
G--7---------------8----8---------8----8---------3---------|
D--6---------------8--------------6--------------2---------|
A--------------------------------(8)-----------------------|
E--0--6------------6--------------6--------------2---------|
      Bb pedal..............................


   Bbm9            Fm9     B13b9  A13b9          Abmaj7

E--8----6----11--------------------------------------------|
B--6---------------6-------9------7----4----7----4---------|
G--6---------------6-------8------6--------------5---------|
D--6---------------4-------7------5--------------5---------|
A------------------6---------------------------------------|
E--6--------------(6)------8------6--------------4---------|


Enjoy

-Bo Parker

"I poked at it with a stick."
            
Submit corrections

comments powered by Disqus
↑ Back to top | John Coltrane Tabs for Naima. Lyrics for acoustic guitar and electric guitar. Tablatures and chords are parodies/interpretations of the original songs. You may use it for private study, scholarship, research or language learning purposes only