» » »

John Butler Trio, Zebra Bass tabs (ver.1)

Artists:  A B C D E F G H I J K L M N O P Q R S T U V W X Y Z # 

Zebra Bass tabs (ver.1)

John Butler Trio Tabs
 Rating:
4/5 (4 votes)
Zebra  lessons Tabs too difficult? Try these video lessons and learn fast
                (1)
JBT - Zebra

Intro/Verse
G]----------------------
D]-------44-4-------------
A]-2-2---------5-5---------
E]------------------44-5-6—

Chorus
G|-4--4-4-0-4----------------------- 
D|--------------2-3-2-3--0-0-2-2--- 
A|------------------------------------- 
E|------------------------------------- 

G|---------------- 
D|------2-2-0-----
A|---2-------2---
E|----------------
            
Submit corrections

comments powered by Disqus
↑ Back to top | John Butler Trio Bass for Zebra. Lyrics for acoustic guitar and electric guitar. Tablatures and chords are parodies/interpretations of the original songs. You may use it for private study, scholarship, research or language learning purposes only