» » »

John Butler Trio, Spring Tabs (ver.1)

Artists:  A B C D E F G H I J K L M N O P Q R S T U V W X Y Z # 

Spring Tabs (ver.1)

John Butler Trio Tabs
Rating:
0/5 (0 votes)
Spring lessons Tabs too difficult? Try these video lessons and learn fast
                Tuning: Open C – CGCGCE
Capo: 4th Fret

Intro:

C|-----------------------------------------------------------------------------
G|--2--4--------------------------0-------2----4-----------2--4----------------
C|--------0h2p0---------------------0----------0-----------------0h2p0---------
G|--2------------4/5------------5-----5---2----4-----------2------------4/5----
C|-----------------------------------------------------------------------------
E|-----------------------------------------------------------------------------

---------------------------|
----------0-------2----0---|
------------0----------0---|x2
--------5-----5---2----0---|
---------------------------|
---------------------------|

Verses: This bit at end of verses
C|-----------------------------------------------| |------------------------|
G|--2--4--------------------------0-------2----4-| |---4------4----4--------|
C|--------0h2p0---------------------0----------0-|x4 |-----0------0----0------|
G|--2------------4/5------------5-----5---2----4-| |-4-----4------4----4----|
C|-----------------------------------------------| |---------0-----------0--|
E|-----------------------------------------------| |------------------------|

Chorus:
C|------------------------------------------------------------------|----------
G|--0-0-0-0------------------------0-0-0-0--------------------------|--0-0-0-0-
C|--0-0-0-0------------------------0-0-0-0--------------------------|--0-0-0-0-
G|--0-0-0-0---------2/4-2p0--------0-0-0-0---------2/4-2p0-----/2-0-|--0-0-0-0-
C|--x-x-x-x------0-2--------2---0--x-x-x-x------0-2--------2--------|--x-x-x-x-
E|--5-5-5-5---2/4------------------5-5-5-5---2/4--------------------|--5-5-5-5-

------------------------------------------------------|
-----------------------0-0-0-0------------------------|
-----------------------0-0-0-0------------------------|
--------2/4-2p0--------0-0-0-0---------2/4-2p0-----0--|
-----0-2--------2---0--x-x-x-x------0-2--------2------|
--2/4------------------5-5-5-5---2/4------------------|

*In the 3rd Chorus John strums open stings along with every note played



*This bit replaces the 4th bar of the 3rd and last verses
C|----------------------------------------------------------------------------|
G|--2--4--------------------------0-------2-------------------------0--2--0---|
C|--------0h2p0---------------------0--------2----2---2-----2-------------0---|
G|--2------------2/4------------5-----5---2---------0---0-----0-----5--2--0---|
C|-------------------------------------------2--2---------2-----2-------------|
E|----------------------------------------------------------------------------|
            

comments powered by Disqus
↑ Back to top | John Butler Trio Tabs for Spring. Lyrics for acoustic guitar and electric guitar. Tablatures and chords are parodies/interpretations of the original songs. You may use it for private study, scholarship, research or language learning purposes only