» » »

John Butler Trio, Seeing Angels Tabs (ver.1)

Artists:  A B C D E F G H I J K L M N O P Q R S T U V W X Y Z # 

Seeing Angels Tabs (ver.1)

John Butler Trio Tabs
Rating:
0/5 (0 votes)
Seeing Angels lessons Tabs too difficult? Try these video lessons and learn fast
                ---- SEEING ANGELS ----
                        Music & Lyrics by John Butler
           From the album "Sunrise Over Sea" by the John Butler Trio

Alright guys, this is a rough sketch of "Seeing Angels".  Obviously, it is hard to 
all of the little improvs that John adds to each verse, but this should give you an idea of 
to go with it!

Make sure you listen to the song when playing this, because I didn't include
the rhythm, timing, or amount of strums for any of the chords.  Also, make sure you 
the percussive sound that John does throughout the song (I lightly showed this in the 
with the Palm Mutes).

TUNING: B F# C# F# B F#
CAPO: 4th fret (all notes relative)

Intro/Verse:
-|--------------------------------------------------------------------------|
-|-------------0---0-----------------0---0-------------0--0-----------------|
-|-----4---2v----x-0------5-x--7\5---5-x-0-----4---2v---x-0------5-x-5v-----|
-|-----0---------x--------0-x--0-------x-------0--------x--------0-x-0------|
-|-0h2-----0-----x----------x----------x---0h2-----0----x----------x--------|
-|---------------x-0--0h4---x--5-------x-0--------------x-0--0h4---x-5v-----|


Chorus: (he tends to improv on the high e during the chorus as well)
-|---------------------------------------------|
-|-0-0-0-0----7-7-7-7----9-9-9-9----7-7-7-7----|
-|-0-0-0-0----0-0-0-0----0-0-0-0----0-0-0-0----|
-|-0-0-0-0----0-0-0-0----0-0-0-0----0-0-0-0----|
-|-0-0-0-0----0-0-0-0----0-0-0-0----0-0-0-0----|
-|-0-0-0-0----7-7-7-7----9-9-9-9----7-7-7-7----|


Breakdown                       repeat.
-|------------------------------------|---------------------------|
-|------------------------------------|------------------------0--|
-|-7-7-7-7--9-9-9-9--7-7-7-7--9-9-9-9-|-7-7-7-7--12-12-12-12---4--|
-|-0-0-0-0--0-0-0-0--0-0-0-0--0-0-0-0-|-0-0-0-0--0--0--0--0----0--|
-|-0-0-0-0--0-0-0-0--0-0-0-0--0-0-0-0-|-0-0-0-0--0--0--0--0----2--|
-|-7-7-7-7--9-9-9-9--7-7-7-7--9-9-9-9-|-7-7-7-7--12-12-12-12---0--|


Outro: (with Dbl. Bass riff preceding this)
-|-------0-----------------------------------|-7-0-----0------------------|
-|--------------------0------------0---------|-----9-7-----0--------------|
-|-----4------------4---4--4-----4---4---4---|-----------9---7------------|
-|---0------------0-------0----0-------0-----|-----------------9-7--------|
-|-2------------2------------2---------------|---------------------9-7v---|
-|-------------------------------------------|----------------------------|
            
Submit corrections

comments powered by Disqus
↑ Back to top | John Butler Trio Tabs for Seeing Angels. Lyrics for acoustic guitar and electric guitar. Tablatures and chords are parodies/interpretations of the original songs. You may use it for private study, scholarship, research or language learning purposes only