» » »

Pickapart Bass tabs (ver.1)

Artists:  A B C D E F G H I J K L M N O P Q R S T U V W X Y Z # 

Pickapart Bass tabs (ver.1)

John Butler Trio
Rating:
0/5 (0 votes)

Hard to play? Try these video lessons and learn fast.
                yo yo hope you like this tab sorry if i miss one or two fills
anywaz enjoy and keep bassin :D

normal tuning

bass kicks in 0:15
|-----8--|
|--------|
|--6-----|
|--------|

main riff                      opional
|-------2h3p2-------|         |-------2h3p2--------5--|
|--------------3--1-|         |--------------3--------|
|-3--3--------------| xheaps  |-3--3------------3-----|
|-------------------|         |-----------------------|

chorus
|-------------------------------|
|-------1-111-------------------|
|-3-333-------1-111-3-1-3-1-3-1-| x4
|-------------------------------|

interlude
|------|
|-1----| x4
|----3-|
|------|

bridge
|-x-x--x-x--x-x--x-x-|------?\\?-| he does some
|-x-x--x-x--x-x--x-x-|-?//?------| wierd sliding
|-x-x--x-x--x-x--x-x-|-----------|
|-x-x--x-x--x-x--x-x-|-----------|
  ^ v  ^ v  ^ v  ^ v

main riff                      opional
|-------2h3p2-------|         |-------2h3p2--------5--|
|--------------3--1-|         |--------------3--------|
|-3--3--------------| xheaps  |-3--3------------3-----|
|-------------------|         |-----------------------|

chorus
|-------------------------------|
|-------1-111-------------------|
|-3-333-------1-111-3-1-3-1-3-1-| x4 
|-------------------------------|

and thats almost it sorry that i missed out the outro cant figure it out!
anjoy anywaz :D keep bassin !
            
Hard to play? Try these video lessons and learn fast. | Correct




comments powered by Disqus
↑ Back to top | Tablatures and chords are parodies/interpretations of the original songs. You may use it for private study, scholarship, research or language learning purposes only