>
 >
Mystery Man

Mystery Man Guitar Tabs

John Butler Trio - Mystery Man chords, tabs, tablatures, lyrics

Guitar lessons | Add/correct | Request | Top 50 tabs Artists:  A B C D E F G H I J K L M N O P Q R S T U V W X Y Z 0-9

Mystery Man Guitar Tabs – John Butler Trio

CD, Sheet music, Poster

Do you like Mystery Man? Share with your friends now
TabsTabs v2
pretty sure jb doesnt play this in standard but i tried to go ahead and figure it out 
it sounds right for the most part when i play it but i know theres theres a few mistakes 
there somewhere. just a basic tab that your gonna have to mess around with a little.


Intro
E|--0-------------------------------------------------------------|
B|-----0----------------2-----------------------------------------|
G|----6-6--4/2-----2-----2---2---2---1h2h4p2-2/4-2----2p1---------|
D|--7----------2h4--4---------4--4h6--------------4------4-2------|
A|----------------------------------------------------------------|
E|--------------------2----0------------------------2-------------|

E|--0-------------------------------------------------------------|
B|-----0----------------2-----------------------------------------|
G|----6-6--4/2-----2-----2---2---2---1h2h4p2-4h6p4-2/4---2--------|
D|-/7----------2h4--4---------4--4h6----------------------4--4-2--|
A|----------------------------------------------------------------|
E|--------------------2----0---------------------------2----0-----|


Verse is just different variations of the intro


Chorus
E|----------------------------------------------------------------|
B|----------------------------------------------------------------|
G|--2--4/6-4-2--4/66666--4444--/666666666666666h7-6-2-------------|
D|--0-----------2/44444--2222--/444444444444444-------------------|
A|----------------------------------------------------------------|
E|----------------------------------------------------------------|

E|----------------------------------------------------------------|
B|----------------------------------------------------------------|
G|--2222-4/6-4-2-2h44444444--/66666666--2-------------------------|
D|--0000-----------22222222--/44444444--2-------------------------|
A|----------------------------------------------------------------|
E|----------------------------------------------------------------|

E|----------------------------|     ------------------------------|
B|----------------------------|     ------------------------------|
G|--22222--44444--6666666666--|Play --22222--44444--6~------------|
D|--00000--22222--4444444444--| x3  --00000--22222--4~------------|
A|----------------------------|     ------------------------------|
E|----------------------------|     ------------------------------|

Verse
Chorus

Breakdown
E|----------------------------------------------------------------|
B|---5555--------5555------5--------------------------------------|
G|---2222--------2222------2--------------------------------------|
D|-------------------------0--6h7p6p4-2--0-2-2~~------------------|
A|------------0-----------0-------------4-------------------------|
E|--2-----2-4---0------2-4----------------------------------------|

E|----------------------------------------------------------------|
B|---5555--------5555------5------------------5-7-5/7-5-----------|
G|---2222--------2222------2--6-6h7p6p4-2--4/6---------6~---------|
D|-------------------------0--------------------------------------|
A|------------0-----------0---------------------------------------|
E|--2-----2-4---0------2-4----------------------------------------|

E|----------------------------------------------------------------|
B|---5555--------5555------5--------------------------------------|
G|---2222--------2222------2--------------------------------------|
D|-------------------------0--2h4/6-6-7/9-9/11-9-9~~--------------|
A|------------0-----------0---------------------------------------|
E|--2-----2-4---0------2-4----------------------------------------|

and thats all i got so far. cant quite get the last part





Comments


Popular John Butler Trio tabs & chords
One Way Road 1 Chords
Peaches & Cream Chords
Daniella Tabs
Media Tabs
Ocean Live 2 Tabs
One Way Road 1 Tabs
One Way Road Live Tabs
Trees Tabs
Zebra 2 Tabs
Zebra 4 Tabs


Song lyrics



↑ Back to top | Tablatures and chords are parodies/interpretations of the original songs. You may use it for private study, scholarship, research or language learning purposes only
© 2014 AZChords.com Contact us | Privacy policy | DMCA | Add/correct tabs | Request tabs | Top 50 tabs