» » »

Good Excuse Tabs (ver.1)

Artists:  A B C D E F G H I J K L M N O P Q R S T U V W X Y Z # 

Good Excuse Tabs (ver.1)

John Butler Trio
Rating:
5/5 (8 votes)

Tabs too difficult? Try these video lessons and learn fast.
                -------------------------------------------------------------------------------
                             Good Excuse - John Butler Trio
-------------------------------------------------------------------------------

Tuning: EADGBe
              *(tremolo picking done fast)                     
e|---------------------------------------------------------------------------|
B|------------------------------------------------------------5-7-7-7-7/8\7--|
G|--------5h7--5h7-5h7-5h7-7/8\7-5------------------------5-7----------------|
D|----5h7--------------------------(5h7-5h7-5h7-5h7-5h7~~)-------------------|
A|---------------------------------------------------------------------------|
E|---------------------------------------------------------------------------|

e|---------------------------------------------------------------------------|
B|--5h7-5-7/8\7-5h7-5--------------------------------------------------------|
G|--------------------5~~~~--------------------------------------------------|
D|---------------------------------------------------------------------------|
A|---------------------------------------------------------------------------|
E|---------------------------------------------------------------------------|
            
Tabs too difficult? Try these video lessons and learn fast.


comments powered by Disqus
↑ Back to top | Tablatures and chords are parodies/interpretations of the original songs. You may use it for private study, scholarship, research or language learning purposes only