» » »

Good Excuse Bass tabs (ver.1)

Artists:  A B C D E F G H I J K L M N O P Q R S T U V W X Y Z # 

Good Excuse Bass tabs (ver.1)

John Butler Trio
Rating:
2/5 (3 votes)

Hard to play? Try these video lessons and learn fast.
                ----------------------------------------------------------------------------
----------------------------------------------------------------------------


Tuning: Standard
timing not exact, listen to cd
INTRO & VERSE
G|-------------------------------------------------------------------------|
D|--7-------5----------5-----7---------5-5----------5----------------------|
A|-----7--------5h7--------------7-----------7---5-------------------------|
E|-------------------------------------------------------------------------|

G|------------------------------7---5--------------------------------------|
D|---7-------5---------5----7---------7--5---------5-----------------------|
A|------7-------5h7-------------------------7--5---------------------------|
E|-------------------------------------------------------------------------|
CHORUS
G|-------------------------------------------------------------------------|
D|-------------------------------------------------------------------------|
A|-------------------------------------------------------------------------|
E|------5--5--5--5--5--5--5--5--3-3-3-3--4-4-4-4---------------------------|
REPEAT AS NECESSARY

| /  slide up
| \  slide down
| h  hammer-on
| p  pull-off
| ~  vibrato
| +  harmonic
| x  Mute note
            
Hard to play? Try these video lessons and learn fast. | Correct




comments powered by Disqus
↑ Back to top | Tablatures and chords are parodies/interpretations of the original songs. You may use it for private study, scholarship, research or language learning purposes only