» » »

John Butler Trio, Gone Tabs (ver.1)

Artists:  A B C D E F G H I J K L M N O P Q R S T U V W X Y Z # 

Gone Tabs (ver.1)

John Butler Trio Tabs
 Rating:
4.3/5 (6 votes)
Gone lessons Tabs too difficult? Try these video lessons and learn fast
                this is the first bonus track off the new April Uprising cd

Intro
E|---0---0-0-0---0-0---0-0--0---0---------0---0-0-0-0--|
B|----------------3-3h5-3----3h5-3h5p3p0-0-------------|
G|--------0-2-2/4--------------------------4/2-2-0-----|
D|----0h2------------------------------------------2---|
A|--0--------------------------------------------------|
E|-----------------------------------------------------|


E|---0---0-0-0---0-0---0-0--0---0-0-0-0-0-0-0----------|
B|----------------0------------------------------------|
G|--------0-2-2/4---0h2-2----2/4-2-0-------------------|
D|----0h2----------------------------5-4-2-0-----------|
A|-----------------------------------------------------|
E|--0----------------------0---------------------------|

Verse
E|----------------------------|
B|---0---0-0---0-0---0-0---0--|
G|--------0-------------------|Play
D|----0h2---0h2---0h2---0h2---| 4x
A|--------------3-----0-------|
E|--0-------------------------|

E|---0---0-0---0-0---0-0---0--|
B|----------------------------|
G|--------0-------------------|Play
D|----0h2---0h2---0h2---0h2---| 4x
A|--------------3-----0-------|
E|--0-------------------------|

E|----------------------------|
B|---3---3-3---3-3---3-3---3--|
G|--------0-------------------|Play
D|----0h2---0h2---0h2---0h2---| 4x
A|--------------3-----0-------|
E|--0-------------------------|

E|---0---0-0---0-0---0-0---0--|
B|----------------------------|
G|--------0-------------------|Play
D|----0h2---0h2---0h2---0h2---| 4x
A|--------------3-----0-------|
E|--0-------------------------|

E|----------------------------|
B|---3---3-3---3-3---3-3---3--|
G|--------0-------------------|Play
D|----0h2---0h2---0h2---0h2---| 4x
A|--------------3-----0-------|
E|--0-------------------------|

Chorus
E|--3------------------0------|
B|--3---------1--1-----0--0---|
G|--0---------0--0-----2--2---|Play
D|--0----2----2--x---2-2--2---| 2x
A|--2----0----3--2--0-----0---|
E|--3----0--------------------|

the end is just a variation of all that
            
Submit corrections

comments powered by Disqus
↑ Back to top | John Butler Trio Tabs for Gone. Lyrics for acoustic guitar and electric guitar. Tablatures and chords are parodies/interpretations of the original songs. You may use it for private study, scholarship, research or language learning purposes only