» » »

John Butler Trio, Funky Tonight Tabs (ver.4)

Artists:  A B C D E F G H I J K L M N O P Q R S T U V W X Y Z # 

Funky Tonight Tabs (ver.4)

John Butler Trio Tabs
 Rating:
4/5 (6 votes)
Funky Tonight lessons Tabs too difficult? Try these video lessons and learn fast
1
                Hey wassup.... im 13 and this
is my version of funky tonight...
any questions leave a comment.. :)
Tuning: CGCGCE
Capo: 4th fret

Intro:
e--------------------------------------------|
b--------------------------------------------|
g--------------------------------------------|
d-----0-----0---0---0---0----0--0---0--------| x2
a-------3h5-------3---3---3h5-----3----------|
E---0---------3---------------5--------------|

e------------------------------------------|
b-----0------0----0---0---0----0---0--0----|
g-----0------0----0---0---0----0---0--0----| x2
d---------------3h0------------------------|
a--5-----3h5--------3---3---3h5------3-----|
E---------------------------------5--------|

Verse:
e--------------------------------------------|
b--------------------------------------------|
g--------------------------------------------| x16
d-----0-----0---0---0---0----0--0---0--------|
a-------3h5-------3---3---3h5-----3----------|
E---0---------3---------------5--------------|


Chorus:
e--------------------------------------------|
b---0--0----0--0----0--0----0--0-------------|
g---3--5----2--3----0--0----3--5-------------|
d---0--0----0--0----3--5----0--0-------------|x4
a---3--5----2--3----0--0----3--5-------------|
E-------------------3--5---------------------|

Solo:
e------------------------------------------------|
b------------------------------------------------|
g-----------------------------------3-5----------|
d----------0-3p0--3-----------4h5p5--------------|
a------3h5-------3--------3h5--------------------|
E---00----------------00-------------------------|


e-----------------------------------------------------|
b-----------3h5-7-5-3-3h5--3----------3---------------|
g-------3h5-------------------5-3---------------------|
d---------------------------------5-3-----------------|
a-----------------------------------------------------|
E--00-------------------------------------------------|

e-----------------7---------------------------9-----------------|
b---------3h5--7----7---------------3h5---7-7-------------------|
g-----3h5-----------------------3h5-----------------------------|
d---------------------------------------------------------------|
a---------------------------------------------------------------|
E--00------------------------00---------------------------------|


e-------------------9-------------------------------------|
b---------3h5----12---12/5----3h5--3----------------------|
g-----3h5----------------------------5-3------------------|
d----------------------------------------5-3--------------|
a--------------------------------------------5-3----------|
E--00-----------------------------------------------------|
sorry dont know the distorted solo

Verse 2:
e--------------------------------------------|
b--------------------------------------------|
g--------------------------------------------| x19
d-----0-----0---0---0---0----0--0---0--------|
a-------3h5-------3---3---3h5-----3----------|
E---0---------3---------------5--------------|

Chorus:
e--------------------------------------------|
b---0--0----0--0----0--0----0--0-------------|
g---3--5----2--3----0--0----3--5-------------|
d---0--0----0--0----3--5----0--0-------------|x4
a---3--5----2--3----0--0----3--5-------------|
E-------------------3--5---------------------|
Then next chorus
e--------------------------------------------|
b---0--0----0-0----0--0----0-0---------------|
g---3--5----0-0----2--3----0-0---------------|
d---0--0----3-5----0--0----3-5---------------|
a---3--5----0-0----2--3----0-0---------------|
E-----------3-5------------3-5---------------|

Break:
e--------------------------------|
b---------3----------------------|
g-------5---55-33p0--3h5---------|x8
d--------------------------------|
a--------------------------------|
E--------------------------------|
then on 8th time
e--------------------------------|
b--------------------------------|
g--------------------------------|
d---3--0-------------------------|
a--------------------------------|
E------0-------------------------|


and thats it :)
hope you learnt something
            
Submit corrections

comments powered by Disqus
↑ Back to top | John Butler Trio Tabs for Funky Tonight. Lyrics for acoustic guitar and electric guitar. 1 Tablatures and chords are parodies/interpretations of the original songs. You may use it for private study, scholarship, research or language learning purposes only