» » »

Funky Tonight Tabs (ver.2)

Artists:  A B C D E F G H I J K L M N O P Q R S T U V W X Y Z # 

Funky Tonight Tabs (ver.2)

John Butler Trio
Rating:
4/5 (10 votes)

Hard to play? Try these video lessons and learn fast.
                -------------------------------------------------------------------------------
-------------------------------------------------------------------------------

Tuning:CGCGCE
Capo 4th          this is correct if you dont think so play it slowly and
                         listen to the song
Main Riff
e|----------------------------------------|
B|----------------------------------------|
G|----------------------------------------|
D|---0-----0---0---0----0-----0---0---0---|
A|-----3h5-------3h5------3h5-------3h5---|
E|-0---------3--------0---------5---------|

lick in the intro
e|-------------|
B|-------------|
G|--------0-5--|
D|--0h3h5------|
A|-------------|
E|-------------|

Chorus

e|------------------------------------------------------------|
B|------------------------------------------------------------|
G|-2/3------------------5-----2/3-----------------5-----------|
D|----------5-----3-------------------5-----3-----------------|
A|-2/3------------------5-----2/3-----------------5-----------|
E|----------5-----3-------------------5-----3-----------------|

ending part       and in between do this
                  riff some random time       end the song with this
e|----------------| ---------------------|-----------------------------|
B|---3------------| -------3--5h6p5------|----3------------------------|
G|-5---5p3p0-3-5--|x35 --5----------3-5--|--5---5p3p0------------------|
D|----------------| ---------------------|----------------0------------|
A|----------------| ---------------------|----------------0------------|
E|----------------| ---------------------|----------------0------------|
all up you should lpay that last part 40 times all up
this one ^ x35          this ^ x4                 this ^ once (at end)
            
Hard to play? Try these video lessons and learn fast. | Correct




comments powered by Disqus
↑ Back to top | Tablatures and chords are parodies/interpretations of the original songs. You may use it for private study, scholarship, research or language learning purposes only