>
 >
Devil Running 1

Devil Running 1 Guitar Tabs

John Butler Trio - Devil Running 1 chords, tabs, tablatures, lyrics

Guitar lessons | Add/correct | Request | Top 50 tabs Artists:  A B C D E F G H I J K L M N O P Q R S T U V W X Y Z 0-9

Devil Running 1 Guitar Tabs – John Butler Trio

CD, Sheet music, Poster

Do you like Devil Running 1? Share with your friends now
TabsTabs v2
-------------------------------------------------------------------------------
               Devil Running (in Drop D Tuning) - John Butler Trio
-------------------------------------------------------------------------------

Tuning: (low to high) D A D G B E
        (Standard tuning, with low E dropped down one step)

Structure:
    Fill
    Intro   x4
    Verse   x8
    Chorus  x4
    Fill2
    Verse   x8
    Chorus  x8
    Bridge
    Solo
    Chorus  x8


   Fill
E-|----------------------------------------|
B-|----------------------------------------|
G-|----------------------------------------|
D-|-----------0h2h3p2p0-------0h2h3p2p0----|
A-|----0h3h5-------------0h3-----------h3--|
D-|----------------------------------------|


   Intro
E-|-------------------------------------------------------------------|
B-|-------------------------------------------------------------------|
G-|-------------------------------------------------------------------|
D-|------0----------0-----0---5------------0----------0-----0---7-----|
A-|0-----0-----3h5-----0------7------0-----0-----3h5-----0------8-----|
D-|0---------------------------------0--------------------------------|


   Verse
E-|-------------------------------------------------------------------|
B-|-------------------------------------------------------------------|
G-|-------------------------------------------------------------------|
D-|------0----------0-----0---h2-----------0----------0-----0---h3----|
A-|0-----0-----3h5-----0-------------0-----0-----3h5-----0------------|
D-|0---------------------------------0--------------------------------|


   Chorus
E-|---------------------------------------------|
B-|---------------------------------------------|
G-|---------------------------------------------|
D-|---0-----------0--8--0--5-----------0--3--0--|
A-|---0-----------0--8--0--5-----------0--3--0--|
D-|---0-----------0--8--0--5-----------0--3--0--|


   Fill2
E-|--------------------------------------------------------------------|
B-|--------------------------------------------------------------------|
G-|--------------------------------------------------------------------|
D-|------0----------0-----0---5------------0----------0-----0---7------|
A-|0-----0-----3h5-----0------7------0-----0-----3h5-----0------8------|
D-|0---------------------------------0---------------------------------|

E-|-------------------------------------------------------------------|
B-|-------------------------------------------------------------------|
G-|-------------------------------------------------------------------|
D-|------0----------0-----0---5----------0h2h3p2p0-------0h2h3p2p0----|
A-|0-----0-----3h5-----0------7---0h3h5-------------0h3-----------h3--|
D-|0------------------------------------------------------------------|


    Bridge
E-|--------------------------------------------------------------------|
B-|--------------------------------------------------------------------|
G-|--------------------------------------------------------------------|
D-|------------3h5--------------0--3--0-----------------7--------5/7---|
A-|3-----3----------------------0--3--0-----5-----5--------------5/7---|
D-|3----------------------------0--3--0-----5--------------------------|

E-|-------------------------------------------------------------------|
B-|-------------------------------------------------------------------|
G-|-------------------------------------------------------------------|
D-|----------10-----8--8--8--10----------12--12h14--14--15\14-14/15\14|
A-|8----8-----------8--8--8--10------10-------------------------------|
D-|8----------------8--8--8-/10--10-----------------------------------|


   Solo
E-|--------------------------------------------------------------------|
B-|--------------------------------------------------------------------|
G-|--------------------------------------------------------------------|
D-|0---------0------------0h2h3p2p0-------------2h3p2-----0h2p0--------|
A-|0--0h3h5--------0h3h5-------------0h3---------------3---------------|
D-|0-------------------------------------------------------------------|


                          Slap Strings
E-|--------------------------------------------------------------------|
B-|--------------------------------------------------------------------|
G-|-----------------------x-----------2--0-----------------------------|
D-|-----------0--------0--x--------0--------3--0h2p0--------0h2--0-----|
A-|3/5\3-3---/5--------0--x-----0---------------------3----------------|
D-|--------------------0--x--------------------------------------------|

E-|--------------------------------------------------------------------|
B-|--------------------------------------------------------------------|
G-|---------------------------------2--2h3-----2h3p2--------2--2h3p2---|
D-|h2p0-----0h2--0h2p0-----0--------0-----------------0----------------|
A-|------3--------------3--5--------0----------------------------------|
D-|---------------------------------0----------------------------------|

E-|--------------------------------------------------------------------|
B-|--------------------------------------------------------------------|
G-|-------2--2h3p2--------2--2h3p2--------2--2h3p2-----------0-----2---|
D-|-0---------------0---------------0---------------0--------0---------|
A-|--------------------------------------------------------------------|
D-|--------------------------------------------------------------------|


       Slap Strings
E-|--------------------------------------------------------------------|
B-|--------------------------------------------------------------------|
G-|----x--------2--0---------------------------------------------------|
D-|-0--x-----0--------3--0h2p0--------0h2p0----------------------------|
A-|-0--x--0---------------------3---------------3-----1----------------|
D-|-0--x---------------------------------------------------------------|

E-|--------------------------------------------------------------------|
B-|--------------------------------------------------------------------|
G-|--------------------------------------------------------------------|
D-|--------------------------------------0--0------------0h2h3p2p0-----|
A-|---0h1p0--------0-----0h1p0-----------0--0-----0h3h5----------------|
D-|----------5------------------5--------0--0--------------------------|

E-|--------------------------------------------------------------------|
B-|--------------------------------------------------------------------|
G-|--------------------------------------------------------------------|
D-|-----------2h3p2-----0h2p0-----2h3p2-----0h2-------------0----------|
A-|0h3---------------3-------------------3-------3/5--------0-----0----|
D-|---------------------------------------------------------0----------|

E-|--------------------------------------------------------------------|
B-|--------------------------------------------------------------------|
G-|--------------------------------------------------------------------|
D-|------0---------0h2p0--0h3p0--0h5p0--0h7p0--0--8h8p0--0h10--12------|
A-|h3h5-----0h3h5----------------------------------------------12------|
D-|------------------------------------------------------------0-------|

E-|--------------------------------------------------------------------|
B-|--------------------------------------------------------------------|
G-|----------7--7-----9-----9--9-----9\5--5--5h7-----5--7--------------|
D-|12--------0--0-----0-----0--0-----0----0--0-------0--0--------0-----|
A-|12------------------------------------------------------------0-----|
D-|0-------------------------------------------------------------0-----|

E-|--------------------------1--0--0--0--|
B-|--------------------------1--1--3--1--|
G-|------2--0----------------0--0--0--0--|
D-|---0--------3--3p2-----2--0-----------|
A-|0-------------------0-----0-----------|
D-|--------------------------0-----------|


=======================================================================
==                       TABLATURE EXPLANATION                       ==
=======================================================================

----------                ----------                ----t---|
----5h8--- Hammeron       ----(8)--- Ghost          ----6---| Tap
----------                ---------- Note           --------|
----5p8--- Pulloff        ----------                --------|

----------                ----------                -----p--|
----5/8--- Slide Up       -----x---- Dead           -----7--| Pop
----------                ---------- Note           --s-----|
----5\8--- Slide Down     ----------                --5-----| Slap

Notes:
    -This is not how John Butler plays devil running (he plays it in
     open C tuning), but this version is based on it as accurately as
     possible, while keeping it relatively simple.

    -If you don't want to play this in Drop D tuning, you can simply
     ignore the bottom line of the tab completely and play the
     following powerchords for the chorus and bridge:

   Chorus
     D              Bb    G              F
E-|-----------------6-----3--------------1-----|
B-|-----------------6-----3--------------1-----|
G-|--2--------------7-----4--------------2-----|
D-|--0-----------0--8--0--5-----------0--3--0--|
A-|--0-----------0--8--0--5-----------0--3--0--|
E-|--0--------------6-----3--------------1-----|


   Bridge
     F                                 G
E-|---------------------------------------------------------------------|
B-|---------------------------------------------------------------------|
G-|---------------------------------------------------------------------|
D-|-------------3/5--------0--3--0-----------------7-------5/7----------|
A-|--3----3----------------0--3--0-----5-----5-------------5/7----------|
E-|--1------------------------1--------3--------------------------------|


    Bb                            C
E-|--------------------------------------------------------------------|
B-|--------------------------------------------------------------------|
G-|--------------------------------------------------------------------|
D-|-----------10-----8--8--8--10---------12---12h14--14-15\14--14/15\14|
A-|-8----8-----------8--8--8--10-----10--------------------------------|
E-|-6----------------6--6--6-/8---8------------------------------------|





Comments


Popular John Butler Trio tabs & chords
Funky Tonight Bass Tabs
Zebra Bass Tabs
Better Than Chords
Betterman Intro Tabs
Busted Tabs
Gone Tabs
Losing You 2 Tabs
Old Man Intro Tabs
Used To Get High Tabs
What You Want Tabs


Song lyrics



↑ Back to top | Tablatures and chords are parodies/interpretations of the original songs. You may use it for private study, scholarship, research or language learning purposes only
© 2014 AZChords.com Contact us | Privacy policy | DMCA | Add/correct tabs | Request tabs | Top 50 tabs