>
 >
Devil Running

Devil Running Guitar Tabs

John Butler Trio - Devil Running chords, tabs, tablatures, lyrics

Guitar lessons | Add/correct | Request | Top 50 tabs Artists:  A B C D E F G H I J K L M N O P Q R S T U V W X Y Z 0-9

Devil Running Guitar Tabs – John Butler Trio

CD, Sheet music, Poster

Do you like Devil Running? Share with your friends now
TabsTabs v2
-------------------------------------------------------------------------------
-------------------------------------------------------------------------------

Tuning: (low to high) B Gb B Gb B Eb
        (open C tuning dropped down half a step)

Structure:
Intro
Verse
Chorus
Fill
Verse
Chorus2
Bridge
Solo
Chorus x2
End


    Intro
Eb|-----------------------------------------|------------------------|------------------------|
B |----------0h2h3p2p0---------0h2h3p2p0----|-----0--------0---------|-----0--------0---------|
Gb|--0h3h5---------------0h3------------h3--|--0--0--3--5-----0---7--|--0--0--3--5-----0---8--|
B |-----------------------------------------|--0------------------5--|--0------------------7--|
Gb|-----------------------------------------|--0------------------0--|--0------------------0--|
B |-----------------------------------------|--0---------------------|--0---------------------|


Eb|----------------------|----------------------|----------------------|----------------------|
B |----0--------0--------|----0--------0--------|----0--------0--------|----0--------0--------|
Gb|-0--0--3--5-----0--7--|-0--0--3--5-----0--8--|-0--0--3--5-----0--7--|-0--0--3--5-----0--8--|
B |-0-----------------5--|-0-----------------7--|-0-----------------5--|-0-----------------7--|
Gb|-0-----------------0--|-0-----------------0--|-0-----------------0--|-0-----------------0--|
B |-0--------------------|-0--------------------|-0--------------------|-0--------------------|

  
Eb|----------------------|----------------------||
B |----0--------0--------|----0--------0--------||
Gb|-0--0--3--5-----0--7--|-0--0--3--5-----0--8--||
B |-0-----------------5--|-0-----------------7--||
Gb|-0-----------------0--|-0-----------------0--||
B |-0--------------------|-0--------------------||
                                                                        

    Verse
Eb||-----------------------|----------------------|----------------------|----------------------|
B ||-----0--------0-----2--|----0--------0-----3--|----0--------0-----2--|----0--------0-----3--|
Gb||*-0--0--3--5-----0-----|-0--0--3--5-----0-----|-0--0--3--5-----0-----|-0--0--3--5-----0-----|
B ||*-0--------------------|-0--------------------|-0--------------------|-0--------------------|
Gb||--0--------------------|-0--------------------|-0--------------------|-0--------------------|
B ||--0--------------------|-0--------------------|-0--------------------|-0--------------------|


Eb|------------------------|----------------------|
B |-----0--------0-----2---|----0--------0-----3--|
Gb|--0--0--3--5-----0------|-0--0--3--5-----0-----|
B |--0---------------------|-0--------------------|
Gb|--0---------------------|-0--------------------|
B |--0---------------------|-0--------------------|


   1st time ending
Eb|------------------------|----------------------||
B |-----0--------0-----2---|----0--------0-----3--||
Gb|--0--0--3--5-----0------|-0--0--3--5-----0----*||
B |--0---------------------|-0-------------------*||
Gb|--0---------------------|-0--------------------||
B |--0---------------------|-0--------------------||

   2nd time ending
Eb|------------------------|----------------------|
B |-----0--------0-----2---|----------------------|
Gb|--0--0--3--5-----0------|-0-----------------x--|
B |--0---------------------|-0-----------------x--|
Gb|--0---------------------|-0-----------------x--|
B |--0---------------------|-0-----------------x--|


    Chorus
Eb||--------------------------------------|----------------------------------------------|
B ||--------------------------------------|----------------------------------------------|
Gb||*-0--------------------------0--8--0--|-5--------------------------------0-----3-----|
B ||*-0--------------------------0--8--0--|-5--------------------------------0-----3-----|
Gb||--0--------------------------0--8--0--|-5--------------------------------0-----3-----|
B ||--0--------------------------0--8--0--|-5--------------------------------0-----3-----|


Eb|--------------------------------------|-----------------------------------------------||
B |--------------------------------------|-----------------------------------------------||
Gb|--0--------------------------0--8--0--|-5--------------------------------0-----3-----*||
B |--0--------------------------0--8--0--|-5--------------------------------0-----3-----*||
Gb|--0--------------------------0--8--0--|-5--------------------------------0-----3------||
B |--0--------------------------0--8--0--|-5--------------------------------0-----3------||


   Fill
Eb|-----------------------|-----------------------|
B |----0--------0-----2---|-----0--------0-----3--|
Gb|-0--0--3--5-----0------|--0--0--3--5-----0-----|
B |-0---------------------|--0--------------------|
Gb|-0---------------------|--0--------------------|
B |-0---------------------|--0--------------------|
                                                                        

                                                                        
Eb|-----------------------|--------------------------------------|
B |----0--------0-----2---|--------------------------------------|
Gb|-0--0--3--5-----0------|--------------------------------------|
B |-0---------------------|---------0h2h3p2p0-------0h2h3p2p0----|
Gb|-0---------------------|--0h3h5-------------0h3-----------h3--|
B |-0---------------------|--------------------------------------|
                                                                        

(Verse)


    Chorus2
Eb||--------------------------------------|---------------------------------------------|
B ||--------------------------------------|---------------------------------------------|
Gb||*-0--------------------------0--8--0--|-5--------------------------------0-----3----|
B ||*-0--------------------------0--8--0--|-5--------------------------------0-----3----|
Gb||--0--------------------------0--8--0--|-5--------------------------------0-----3----|
B ||--0--------------------------0--8--0--|-5--------------------------------0-----3----|


Eb|---------------------------------------|---------------------------------------------|
B |---------------------------------------|---------------------------------------------|
Gb|-0----------------------------0--8--0--|-5--------------------------------0-----3----|
B |-0----------------------------0--8--0--|-5--------------------------------0-----3----|
Gb|-0----------------------------0--8--0--|-5--------------------------------0-----3----|
B |-0----------------------------0--8--0--|-5--------------------------------0-----3----|


Eb|---------------------------------------|---------------------------------------------|
B |---------------------------------------|---------------------------------------------|
Gb|-0----------------------------0--8--0--|-5--------------------------------0-----3----|
B |-0----------------------------0--8--0--|-5--------------------------------0-----3----|
Gb|-0----------------------------0--8--0--|-5--------------------------------0-----3----|
B |-0----------------------------0--8--0--|-5--------------------------------0-----3----|


   1st time ending
Eb|---------------------------------------|---------------------------------------------||
B |---------------------------------------|---------------------------------------------||
Gb|-0----------------------------0--8--0--|-5--------------------------------0-----3---*||
B |-0----------------------------0--8--0--|-5--------------------------------0-----3---*||
Gb|-0----------------------------0--8--0--|-5--------------------------------0-----3----||
B |-0----------------------------0--8--0--|-5--------------------------------0-----3----||


   2nd time ending
Eb|---------------------------------------|---------------------------------------------||
B |---------------------------------------|---------------------------------------------||
Gb|-0----------------------------0--8--0--|--5--------5--------5--------------5------5--||
B |-0----------------------------0--8--0--|--5--------5--------5--------------5------5--||
Gb|-0----------------------------0--8--0--|--5--------5--------5--------------5------5--||
B |-0----------------------------0--8--0--|--5--------5--------5--------------5------5--||


   Bridge
Eb|--------------------|------------------|------------------|----------------------|
B |--------------------|------------------|------------------|----------------------|
Gb|--------------------|------------------|------------------|----------------------|
B |--3------------3h5--|---------0--5--0--|--5------------7--|-------------0--7--0--|
Gb|--3-----3-----------|---------0--5--0--|--5-----5---------|-------------0--7--0--|
B |--3-----------------|---------0--5--0--|--5---------------|-------------0--7--0--|


Eb|--------------------|-----------------------------|
B |--------8-------10--|-10--10--8--8--10--12--------|
Gb|--------8-------8---|-0---0---8--8--0---0------0--|
B |--8-----8-------10--|-10--10--8--8--10--12-----0--|
Gb|--8-----8-------8---|-0---0---8--8-------------0--|
B |--8-----------------|--------------------------0--|


Eb|--------------------|-----------------------------|
B |--------10-----12---|-----------------------------|
Gb|--10----10-----10---|-----------------------------|
B |--10----10-----12---|-12-14-14-14/15\14--14h15p14-|
Gb|--10----10-----10---|-----------------------------|
B |--10----------------|-----------------------------|


   Solo
Eb|------------------------------------|----------------------------------|
B |-------------------0h2h3p2p0--------|--2h3p2p0-----0h2p0---------------|
Gb|----3h5-----0h3h5-------------0h3---|-----------0---------3/5\3--3/5---|
B |-0----------------------------------|----------------------------------|
Gb|-0----------------------------------|----------------------------------|
B |-0----------------------------------|----------------------------------|



Eb|---------1h3--1--1--1---------|-1-------1---------1-------1---------3--|
B |---------0----0--3--0h2p0-----|-0h2-----0h2p0-----0h2-----0h2p0-----0--|
Gb|---------0-----------------0--|----------------3-----------------3--5--|
B |------------------------------|----------------------------------------|
Gb|------------------------------|----------------------------------------|
B |--10--x-----------------------|----------------------------------------|



Eb|------3h4--3h4p3---------3h4p3---------3h4p3---------3h4p3-------------
B |------0-----------0h5p0---------0h5p0---------0h5p0---------0h5p0------
Gb|--0--------------------------------------------------------------------
B |--0--------------------------------------------------------------------
Gb|--0--------------------------------------------------------------------
B |--0--------------------------------------------------------------------



Eb|-3h4p3---------1--3--|--------1h3--1--1--1---------|
B |--------0h5p0--0--0--|--------0----0--3--0h2p0-----|
Gb|---------------------|--------0-----------------x--|
B |---------------------|--0--x-----------------------|
Gb|---------------------|--0--x-----------------------|
B |---------------------|--0--x-----------------------|



Eb|------------------------------------------------|
B |-0h2p0------------------------------------------|
Gb|--------3-----1-----0h1p0-----0h1-----0h1p0-----|
B |---------------------------5-----------------5--|
Gb|------------------------------------------------|
B |------------------------------------------------|



Eb|------------------------------------|-----------------------------------|
B |------------------------------------|-0-h20-----h20-----h20-----h2------|
Gb|------------------------------------|--------3---------------3------35--|
B |-0-----0------------0h2h3p2p0-------|-0h-p0-----0p0-----0p0-----02------|
Gb|-5-----5-----0h3h5-------------0h3--|--------3---------------3------/5--|
B |------------------------------------|-----------------------------------|



Eb|-------------------------------------------------------------------------------------|
B |---------------------------h2--h3-----/5--5-------7-------8-----------10---------12~~|
Gb|-----------------------------------0-------------------------------------------------|
B |-0------------0------------02--03----3/5-----5/7-----7/8-----8/10---------10/12------|
Gb|-5-----0h3h5--------0h3h5------------------------------------------------------------|
B |-------------------------------------------------------------------------------------|
                                                                        

             Bend                                Bend
Eb|-----x--13----------13--13--13--13--13--|-13-------13-----13--13-----13--13--13--|
B |-----x--13^(14)-----14--14--14--14--14--|-(14)v13--10-----10--10h12--12--10--12--|
Gb|--0--0----------------------------------|----------------------------------------|
B |--0--0----------------------------------|----------------------------------------|
Gb|--0-------------------------------------|----------------------------------------|
B |--0-------------------------------------|----------------------------------------|



Eb|-----------15--13--13--13-----13--13-------|----11----10----10----10----|
B |--0--------0---0---15--15p14--14--14p0-----|----10----10----12----10----|
Gb|--0--0--0--0---0---0---0------0---0-----0--|----10----10----10----10----|
B |-----0--0--0---0---0---0------0---0-----0--|----0-----0-----0-----0-----|
Gb|--------0--0----------------------------0--|----------------------------|
B |--------0-------------------------------0--|----------------------------|


(Chorus x2)


   End
Eb|----------------------|
B |----------------------|
Gb|-0--0--0--0--0--0--0--|
B |-0--0--0--0--0--0--0--|
Gb|-0--0--0--0--0--0--0--|
B |-0--0--0--0--0--0--0--|




========================================================================
==                       TABLATURE EXPLANATION                        ==
========================================================================

----------                ----------                ----t---
----5h8--- Hammeron       ----(8)--- Ghost          ----6--- Tap
----------                ---------- Note           --------
----5p8--- Pulloff        ----------                --------

----------                ----------                -----p--
----5/8--- Slide Up       -----x---- Dead           -----7-- Pop
----------                ---------- Note           --s-----
----5\8--- Slide Down     ----------                --5----- Slap 

----------                ||------|| Repeat         --------
----5~~~-- Vibrato        ||*----*||                -5^----- Bend
----------                ||*----*||                ----4v--
----------                ||------||                --------

1st Time                  2nd Time
--------||                ---------|                -------- Bend to the
-------*|| End of 1st     ---------| End of 2nd     -4^(5)-- equivalent
-------*|| Playing        ---------| Playing/       -------- of (number)
--------||                ---------| Repeat         -------- fret





Comments


Popular John Butler Trio tabs & chords
Company Sin Bass Tabs
Funky Tonight 1 Bass Tabs
Good Excuse Chords
Revolution 1 Chords
Revolution 2 Chords
I'd Do Anything Tabs
Life Ain't What It Seems Tabs
Somthings Gotta Give Tabs
What Can I Be? Tabs
What You Want 1 Tabs


Song lyrics



↑ Back to top | Tablatures and chords are parodies/interpretations of the original songs. You may use it for private study, scholarship, research or language learning purposes only
© 2014 AZChords.com Contact us | Privacy policy | DMCA | Add/correct tabs | Request tabs | Top 50 tabs