» » »

John Butler Trio, Daniella Tabs (ver.1)

Artists:  A B C D E F G H I J K L M N O P Q R S T U V W X Y Z # 

Daniella Tabs (ver.1)

John Butler Trio Tabs
 Rating:
3.4/5 (10 votes)
Daniella lessons Tabs too difficult? Try these video lessons and learn fast
                -------------------------------------------------------------------------------
-------------------------------------------------------------------------------

Tuning:CGCGCE

Intro
these are  not exact picks but on the correct strings... you get the idea
e|--------------------------------------------------------------------------------|
B|----------6/7-----------------------------------10/12---------------------------|
G|-----3------------------------------------------10/12---------------------------|
D|---0----------7---7------------3---------10------------12--------3-----------10-|
A|-------------7----7-----------3---------10-----------12---------3---------10----|
E|-0--------6/7-------7---0--2/3----0-9/10-----0--10/12------0-2/3---0--9/10------|

e|---------------------------------------------------------------------------|
B|-12\10/12\10/12------------------------------------------------------------|
G|-12\10/12\10/12------------------------------------------------------------|
D|---------------------12-------3--------10---------12-----------------------|
A|-------------------12--------3-------10---------12-------------------------|
E|-----------------12-----0-2/3----9/10------10/12---------------------------|

verse
for this repeat the intro but without the 12\10/12\10/12 and very start
then go to this which is probably the bridge just before the chorus and iit goes like this
e|-------------------------------------|
B|-------------------------------------|
G|-------------------------------------|
D|--5/7----7---7--7-----5-----5-5-5-5--|
A|-------7----7--7-----5--5-5----55----|
E|--5/7-----7-------4/5----5-----------|

And then repeat practically

im not gonna bother with the solo yet because when i was tabbing the good excuse solo i 
so many brain freezes that it took me half an hour.
            
Submit corrections

comments powered by Disqus
↑ Back to top | John Butler Trio Tabs for Daniella. Lyrics for acoustic guitar and electric guitar. Tablatures and chords are parodies/interpretations of the original songs. You may use it for private study, scholarship, research or language learning purposes only