» » »

John Butler Trio, Close To You Tabs (ver.3)

Artists:  A B C D E F G H I J K L M N O P Q R S T U V W X Y Z # 

Close To You Tabs (ver.3)

John Butler Trio Tabs
 Rating:
3.6/5 (5 votes)
Close To You lessons Tabs too difficult? Try these video lessons and learn fast
1
                The John Butler Trio - Close To You

Main riff (verse and chorus)

E|------------------------------------|
B|------------------------------------|
G|------------------------------------|
D|------------------------------------|
A|--0-0-2-3--2-0----0-3-5--/7-5-3-----|
E|---------------3--------------------|

E|------------------------------------|
B|------------------------------------|
G|------------------------------------|
D|------------------------------------|
A|--0-0-2-3--2-0----0-3-5---3-0-------|
E|---------------3--------------3-----|

The 2nd part of the riff changes to that a few times (end of 1st verse, middle of 2nd 
and end of the chorus just before the solo)

E|------------------------------------|
B|------------------------------------|
G|------------------------------------|
D|----------------------------5-7-----|
A|--0-0-2-3--2-0----0-3-5--/7---------|
E|---------------3--------------------|


1st pre chorus (listen for the changes)

E|----------------------------------------|
B|----------------------------------------|
G|----------------------------------------|
D|--3----5----7----5----3----5----3----5--|
A|--3----5----7----5----3----5----3----5--|
E|--1----3----5----3----1----3----1----3--|


2nd pre chorus

E|----------------------0----0---------0--|
B|----------------------0----0h1-------0h1|
G|----------------------2----0---------0--|
D|--7----5----3----5----2----0h2--3----0h2|
A|--7----5----3----5----0----0----3----0--|
E|--5----3----1----3---------3----1----3--|


The solo is out of reach for me. I'll let somebody else take care of it.

Enjoy
            
Submit corrections

comments powered by Disqus
↑ Back to top | John Butler Trio Tabs for Close To You. Lyrics for acoustic guitar and electric guitar. 1 Tablatures and chords are parodies/interpretations of the original songs. You may use it for private study, scholarship, research or language learning purposes only