» » »

Betterman Tabs (ver.5)

Artists:  A B C D E F G H I J K L M N O P Q R S T U V W X Y Z # 

Betterman Tabs (ver.5)

John Butler Trio
Rating:
4/5 (2 votes)

Hard to play? Try these video lessons and learn fast.
                (Intro)
Title - Betterman
Artist - John Butler Trio

Full Intro


Standard Tuning EADGBe

/ = Slide
h = Hammer on
p = Pull Off

The starting of betterman, you could play it as 
G|---------7-(Harmonic)-0----------| 
D|-------5-------------------------|

or you could play it as 3 and 5 on E and A, both sounds as good.

e|-------------------------------------------------| 
B|-------------------------------------------------| 
G|-------------------------------------------------| 
D|----------3-5-5p3-----------------8-10-10p8------| 
A|---5--3/5----------5------8--8/10-----------10---| 
E|---3----------------------6----------------------| 

e|-------------------------------------------------|
B|-------------------------------------------------|
G|------3/5-3p0----------0-------------------------|
D|--------------5p0--3h5-------------3-------------|
A|---3----------------------5--3h4h5---5--3h5p3----|
E|---1----------------------3----------------------|

e|-------------------------------------------------| 
B|-------------------------------------------------| 
G|-------------------------------12--10-10-10-10-10| 
D|----------3-5-5p3--------10/12-12--10-10-10-10-10| 
A|---5--3/5----------5--8--8-/10-------------------| 
E|---3------------------6--------------------------| 

e|-------------------------------------------------|
B|----------------------------6h8p6----------------|
G|-----3/5-3p0----------0-----------5h7p5-------0--|
D|-------------5p0--3h5-------------------5h7p5----|
A|---3---------------------5-----------------------|
E|---1---------------------3-----------------------|

e|-------------------------------------------------| 
B|-------------------------------------------------| 
G|-------------------------------------------------| 
D|----------3-5-5p3----------------8-10-10p8-------| 
A|---5--3/5----------5------8--8/10-----------10---| 
E|---3----------------------6----------------------| 

e|-------------------------------------------------|
B|-------------------------------------------------|
G|------3/5-3p0----------0-------------------------|
D|--------------5p0--3h5-------------3-------------|
A|---3----------------------5--3h4h5---5--3h5p3----|
E|---1----------------------3----------------------|

e|-------------------------------------------------| 
B|-------------------------------------------------|
G|-------------------------------------------------|
D|----------3-5-5p3-------------8/10-10p8----8-----|
A|---5--3/5----------5------8-------------10---10--|
E|---3----------------------6----------------------|

e|-------------------------------------------------|
B|-------------------------------------------------|
G|------3/5-3p0----------0-------------------------|
D|--------------5p0--3h5---------------------------|
A|---3---------------------------------------------|
E|---1---------------------------------------------|
            
Hard to play? Try these video lessons and learn fast. | Correct




comments powered by Disqus
↑ Back to top | Tablatures and chords are parodies/interpretations of the original songs. You may use it for private study, scholarship, research or language learning purposes only