» » »

Betterman Tabs (ver.4)

Artists:  A B C D E F G H I J K L M N O P Q R S T U V W X Y Z # 

Betterman Tabs (ver.4)

John Butler Trio
Rating:
4/5 (5 votes)

Tabs too difficult? Try these video lessons and learn fast.
                (Intro)
-----------------------------------------------------------------------------
                             SONG NAME - Band Name
-----------------------------------------------------------------------------

Tuning:6=C 5=G 4=C 3=G 2=C 1=E

gtr(1) acoustic ||  gtr 2 acoustic
   *                           harmonic       .   .
|---------------||---------------------------------------------------------|
|--7------------||---------------------------------------------------------|
|--7------------||---------------------------------------------------------|
|--7------------||----------------(12)--------5---7--7p5------0------------|
|--7------------||----------------------5/7---------------7----------------|
|--7------------||-----7----x-------------------------------------10---x---|
*rub slide against strings.
harmonic            .     .
|--------------------------------------------------------------------------|
|--------------------------------------------------------------------------|
|---------------------------------------------------0-----------5--3p0-----|
|--(12)-------------10----12----12p10-----0---5-----0---x---0--------------|
|-----------10/12---------------------12------5---------x------------------|
|---------------------------------------------5---------x------------------|

                         *               .
|----------------------------------------------------------x-----------------|
|----------------------------------------------------------x-----------------|
|-------------------0--------------------------------------x-----------------|
|--0h5-x-5---------------------------5-----------------7-----x--------5--7---|
|------x----------------------0h5h7------7---5/75-----------x---5/7----------|
|------x----5/7----------x--------------------------x--7-----x---------------|
*tap guitar body

|-----------------------x--------------------------------------------------|
|-----------------------x----------------12-10-10-10---0----------------0--|
|-----------------------x-x--10-10-12-10-10-10-10-10---0-------------------|
|-7p5--------0------------x--10-10-10-10-10-10-10-10-x-0----------0--x-----|
|-------7-----------------x--10-10-10-10-10-10-10-10-x---------------x-----|
|-----------------10---------10-10-10-10-10-10-10-10-x-------5-------x-----|


|----------------------------------------------------------------------------|
|------0------------------------5h7p5p0---------------0----------------------|
|-3p0----------------------0------------7-53p0-------------------------------|
|------0h5------5----5/7-----x------------------0-5/7------------------------|
|----------------------------x-----------------------------------------------|
|-----------x--------5/7-----x-----------------------------------------------|


I know this is correct because I have the tab book(therefore all my john
butler tabs are right!)so dont say its not.

I am so,so,so,so,so sorry about not returning the emails. Please leave your adress if
like 3 months and it recently kicked back up). He tunes the guitar by tuning the B(2ND)
to the G(3RD) string at the 5th fret. Then tune the D(4TH) string by puching down
the 7th fret and playing the G. Tune the A string(5th) to the D(now C) at the 5th fret.
the low E(6TH) string at the 7th fret to the A(now G)at the 7th fret. And my name is
Liam, I am 12 years old as of 2005 and i have only been playing since Feb05.

| /  slide up
|   slide down
| h  hammer-on
| p  pull-off
| ~  vibrato
| +  harmonic
| x  Mute note
=============================================================================
            
Tabs too difficult? Try these video lessons and learn fast.


comments powered by Disqus
↑ Back to top | Tablatures and chords are parodies/interpretations of the original songs. You may use it for private study, scholarship, research or language learning purposes only